PrimaNota.ru - самый крупный в мире бесплатный архив песенных текстов, аккордов, табулатур и нот


AC/DC - Play Ball - текст песни, таба, бас-таба, видео

Регистрация Запомнить меня
Войти через:  Facebook Google Twitter Vk Yandex Mail.ru

AC/DC - Play Ball - текст песни, таба, бас-таба, видео

Печатать
Просмотров: 568
Уроки эстрадного вокала в Санкт-Петербурге
AC/DC - Play Ball
Tuning - Standard (eBGDAE)
Tabbed by: Jarad Foyle (15)

Legend:
X= Mute
/= Slide


Introduction:
   A#           F      C      G
e-----------------------------3-3-3-|
B---------------1-1-1--1-1-1--3-3-3-|
G---------------2-2-2---------0-0-0-| . x2
D--8-8-8-8-8----3-3-3--2-2-2--X-X-X-| .
A--8-8-8-8-8-----------3-3-3--2-2-2-|
E--6-6-6-6-6------------------3-3-3-|

Verse:
e----------|
B----------|
G----------| . x4
D--/8--7-8-| .
A----------|
E----------|

Pre-Chorus:
   A#           F      C      G
e-----------------------------3-3-3-|
B---------------1-1-1--1-1-1--3-3-3-|
G---------------2-2-2---------0-0-0-| . x6
D--8-8-8-8-8----3-3-3--2-2-2--X-X-X-| .
A--8-8-8-8-8-----------3-3-3--2-2-2-|
E--6-6-6-6-6------------------3-3-3-|

Chorus:                                    A#                 A#
e------------------------------------------------10---09---07----10---09---07-----------------------------|
B-----------------------------------------------b13--b12--b10----b13--b12--b10----------------------------|
G---------------------------------------------------------------------------------------------------------|
D--/8--7-8---/8--7-8---/8--7-8---/8--7-8--8-8-8---------------8-----------------/8--7-8--/8--7-8--/8--7-8-|
A-----------------------------------------8-8-8---------------8-------------------------------------------|
E-----------------------------------------6-6-6---------------6-------------------------------------------|

e---10---09---07-|
B--b13--b12--b10-|
G----------------|
D----------------|
A----------------|
E----------------|

Pre-Chorus:
   A#           F      C      G
e-----------------------------3-3-3-|
B---------------1-1-1--1-1-1--3-3-3-|
G---------------2-2-2---------0-0-0-| . x4
D--8-8-8-8-8----3-3-3--2-2-2--X-X-X-| .
A--8-8-8-8-8-----------3-3-3--2-2-2-|
E--6-6-6-6-6------------------3-3-3-|

Chorus:                                    A#                 A#
e------------------------------------------------10---09---07----10---09---07---|
B-----------------------------------------------b13--b12--b10----b13--b12--b10--|
G-------------------------------------------------------------------------------|
D--/8--7-8---/8--7-8---/8--7-8---/8--7-8--8-8-8---------------8-----------------|
A-----------------------------------------8-8-8---------------8-----------------|
E-----------------------------------------6-6-6---------------6-----------------|

Solo:

(I need help transcribing the solo, so hopefully someone more experienced in 
transcribing can help me)

Chorus:                                    A#                 A#
e------------------------------------------------10---09---07----10---09---07---|
B-----------------------------------------------b13--b12--b10----b13--b12--b10--|
G-------------------------------------------------------------------------------|
D--/8--7-8---/8--7-8---/8--7-8---/8--7-8--8-8-8---------------8-----------------|
A-----------------------------------------8-8-8---------------8-----------------|
E-----------------------------------------6-6-6---------------6-----------------|

Outro:

(I need help transcribing the outro, so hopefully someone more experienced in 
transcribing can help me)


This song was taken off Vevo but I still was able to play it off my phone, so it was harder
transcribing from the phone. Thank you and hopefully you like this tab.
Добавлено: 12.09.2014
Другие материалы по этой песне:

Страница создана 09.08.2014
http://primanota.ru/ac-dc/play-ball-chords.htm
Привет, Гость.
Предлагаем пройти революционный курс по гитаре.
Подарок от PrimaNota.Ru, забирай!