» 
 » 
Plaster Of Paris



Pixies - Plaster Of Paris - бас-таба

Бесплатный вокальный онлайн-квест VOX7
[Intro]

G|-------------------------------------------------------------|
D|---3-------------3-------------3-------------3---------------|
A|-----5-3-----------5-3-----------5-3-----------5-3-----------|
E|-1-------3-3-3-1-------3-3-3-1-------3-3-3-1-------3-3-3-----|

[Verse]

G|---------------------------------------------------------------------------------------|
D|-------------------------------3-------------------------------------------3-----------|
A|---------------------------------5-3-----------------------------------------5-3-------|
E|-1-1-1-1-1-1-1-3-3-3-3-3-3-3-1-------3-3-3-1-1-1-1-1-1-1-1-3-3-3-3-3-3-3-1-------3-3-3-|

[Chorus]

G|------------------------------------------------------------------------------------------|
D|---------5-5-5-5---3-------------3-------------------5-5-5-5---3-------------3------------|
A|-6-6-6-6-------------5-3-----------5-3-------6-6-6-6-------------5-3-----------5-3--------|
E|-----------------1-------3-3-3-1-------3-3-3-----------------1-------3-3-3-1-------3-3-3--|

G|---------------------------------------------------------------------------------------|
D|-------------------------------3-------------------------------------------3-----------|
A|---------------------------------5-3-----------------------------------------5-3-------|
E|-1-1-1-1-1-1-1-3-3-3-3-3-3-3-1-------3-3-3-1-1-1-1-1-1-1-1-3-3-3-3-3-3-3-1-------3-3-3-|

G|------------------------------------------------------------------------------------------|
D|---------5-5-5-5---3-------------3-------------------5-5-5-5---3-------------3------------|
A|-6-6-6-6-------------5-3-----------5-3-------6-6-6-6-------------5-3-----------5-3--------|
E|-----------------1-------3-3-3-1-------3-3-3-----------------1-------3-3-3-1-------3-3-3--|

[Bridge]

G|---------------------------------------------------------------------------|
D|---------------------------------------------------------------------------|
A|---------------------------------------------------------------------------|
E|-1-1-1-1-1-1-1-1-1-3-3-3-3-3-3-3-3-3-1-1-1-1-1-1-1-1-3-3-3-3-3-3-3-3-------|

[Outro]

G|------------------------------------------------------------------------------------------|
D|---------5-5-5-5---3-------------3-------------------5-5-5-5---3-------------3------------|
A|-6-6-6-6-------------5-3-----------5-3-------6-6-6-6-------------5-3-----------5-3--------|
E|-----------------1-------3-3-3-1-------3-3-3-----------------1-------3-3-3-1-------3-3-3--|

G|-----------------------------------------------------------------|
D|---------5-5-5-5---3-------------3-------------------5-5-5-5-----|
A|-6-6-6-6-------------5-3-----------5-3-------6-6-6-6-------------|
E|-----------------1-------3-3-3-1-------3-3-3-----------------1---|

   

Pixies - Plaster Of Paris - ноты

(включить)
Другие материалы по этой песне:
  • Аккорды, текст

https://primanota.ru/pixies/plaster-of-paris-chords.htm

Привет, гитарист!

Тебе подарок от сайта PrimaNota.ru

Забрать подарок
ВАМ ПОДАРКИ ОТ ПРОЕКТА
"ГИТАРНАЯ РЕВОЛЮЦИЯ"