Войти:  Facebook Google Twitter Vk Yandex Mail.ru
PrimaNota.ru - самый крупный в мире бесплатный архив песенных текстов, аккордов, табулатур и нот


Pixies - The Baal's Back - табы

Печатать
Поддержи лучшую metal-группу Петербурга!

The Baal's Back

  • аккорды, текст

e|---------------0-0-0---------------0-0-0----|
B|--------------------------------------------|
G|-----5-5-5-2-2-----------5-5-5-2-2----------|
D|-2-2-5-5-5-2-2-------2-2-5-5-5-2-2----------|
A|-2-2-3-3-3-0-0-------2-2-3-3-3-0-0----------|
E|-0-0-----------------0-0--------------------|

e|---------------0-0-0---------------0-0-0----|
B|--------------------------------------------|
G|-----5-5-5-2-2-----------5-5-5-2-2----------|
D|-2-2-5-5-5-2-2-------2-2-5-5-5-2-2----------|
A|-2-2-3-3-3-0-0-------2-2-3-3-3-0-0----------|
E|-0-0-----------------0-0--------------------|

[Verse]

e|---------------0-0-0---------------0-0-0----|
B|--------------------------------------------|
G|-----5-5-5-2-2-----------5-5-5-2-2----------|
D|-2-2-5-5-5-2-2-------2-2-5-5-5-2-2----------|
A|-2-2-3-3-3-0-0-------2-2-3-3-3-0-0----------|
E|-0-0-----------------0-0--------------------|

e|---------------0-0-0--------------------------|
B|----------------------------------------------|
G|-----5-5-5-2-2-------------------5-5-5-5-5-5--|
D|-2-2-5-5-5-2-2-------5-5-5-5-5-5-5-5-5-5-5-5--|
A|-2-2-3-3-3-0-0-------5-5-5-5-5-5-3-3-3-3-3-3--|
E|-0-0-----------------3-3-3-3-3-3--------------|


e|---------------0-0-0---------------0-0-0----|
B|--------------------------------------------|
G|-----5-5-5-2-2-----------5-5-5-2-2----------|
D|-2-2-5-5-5-2-2-------2-2-5-5-5-2-2----------|
A|-2-2-3-3-3-0-0-------2-2-3-3-3-0-0----------|
E|-0-0-----------------0-0--------------------|

e|---------------0-0-0--------------------------|
B|----------------------------------------------|
G|-----5-5-5-2-2-------------------5-5-5-5-5-5--|
D|-2-2-5-5-5-2-2-------5-5-5-5-5-5-5-5-5-5-5-5--|
A|-2-2-3-3-3-0-0-------5-5-5-5-5-5-3-3-3-3-3-3--|
E|-0-0-----------------3-3-3-3-3-3--------------|

e|------------------------------------|
B|------------------------------------|
G|------------------------------------|
D|-2-2-2-5-5-5-7-7-7-9-9-9-9-9-9------|
A|-2-2-2-5-5-5-7-7-7-9-9-9-9-9-9------|
E|-0-0-0-3-3-3-5-5-5-7-7-7-7-7-7------|

[Chorus]

e|---------------------------------------------------------------------------|
B|---------------------------------------------------------------------------|
G|-------5-5-5-5-5-5-5-5-------5-5-5-5-5-5-5-5-------5-5-5-5-5-5-5-5---------|
D|-2-2-2-5-5-5-5-5-5-5-5-2-2-2-5-5-5-5-5-5-5-5-2-2-2-5-5-5-5-5-5-5-5---------|
A|-2-2-2-3-3-3-3-3-3-3-3-2-2-2-3-3-3-3-3-3-3-3-2-2-2-3-3-3-3-3-3-3-3---------|
E|-0-0-0-----------------0-0-0-----------------0-0-0-------------------------|

e|-----------------------|
B|-----------------------|
G|-7-7-7-7-9-------9-----|
D|-7-7-7-7-9-------9-----|
A|-5-5-5-5-7-------7-----|
E|-----------0-0-0-------|

e|---------------------------------------------------------------------------|
B|---------------------------------------------------------------------------|
G|-------5-5-5-5-5-5-5-5-------5-5-5-5-5-5-5-5-------5-5-5-5-5-5-5-5---------|
D|-2-2-2-5-5-5-5-5-5-5-5-2-2-2-5-5-5-5-5-5-5-5-2-2-2-5-5-5-5-5-5-5-5---------|
A|-2-2-2-3-3-3-3-3-3-3-3-2-2-2-3-3-3-3-3-3-3-3-2-2-2-3-3-3-3-3-3-3-3---------|
E|-0-0-0-----------------0-0-0-----------------0-0-0-------------------------|

e|-----------------------|
B|-----------------------|
G|-7-7-7-7-9-------9-----|
D|-7-7-7-7-9-------9-----|
A|-5-5-5-5-7-------7-----|
E|-----------0-0-0-------|

e|------------------------------------|
B|------------------------------------|
G|------------------------------------|
D|-2-2-2-5-5-5-7-7-7-9-9-9-9-9-9------|
A|-2-2-2-5-5-5-7-7-7-9-9-9-9-9-9------|
E|-0-0-0-3-3-3-5-5-5-7-7-7-7-7-7------|

SOLO

e|-15-----12--------15------12------------12-12----10------------------------|
B|------------------------------12-----------------------12-10-12----10/-----|
G|---------------------------------------------------------------------------|
D|---------------------------------------------------------------------------|
A|---------------------------------------------------------------------------|
E|---------------------------------------------------------------------------|

e|---------------0-0-0---------------0-0-0----|
B|--------------------------------------------| SECOND GUITAR
G|-----5-5-5-2-2-----------5-5-5-2-2----------|
D|-2-2-5-5-5-2-2-------2-2-5-5-5-2-2----------|
A|-2-2-3-3-3-0-0-------2-2-3-3-3-0-0----------|
E|-0-0-----------------0-0--------------------|

e|---------------0-0-0--------------------------|
B|----------------------------------------------| SECOND GUITAR
G|-----5-5-5-2-2-------------------5-5-5-5-5-5--|
D|-2-2-5-5-5-2-2-------5-5-5-5-5-5-5-5-5-5-5-5--|
A|-2-2-3-3-3-0-0-------5-5-5-5-5-5-3-3-3-3-3-3--|
E|-0-0-----------------3-3-3-3-3-3--------------|

[Verse]

e|---------------0-0-0---------------0-0-0----|
B|--------------------------------------------|
G|-----5-5-5-2-2-----------5-5-5-2-2----------|
D|-2-2-5-5-5-2-2-------2-2-5-5-5-2-2----------|
A|-2-2-3-3-3-0-0-------2-2-3-3-3-0-0----------|
E|-0-0-----------------0-0--------------------|

e|---------------0-0-0--------------------------|
B|----------------------------------------------|
G|-----5-5-5-2-2-------------------5-5-5-5-5-5--|
D|-2-2-5-5-5-2-2-------5-5-5-5-5-5-5-5-5-5-5-5--|
A|-2-2-3-3-3-0-0-------5-5-5-5-5-5-3-3-3-3-3-3--|
E|-0-0-----------------3-3-3-3-3-3--------------|

e|------------------------------------|
B|------------------------------------|
G|------------------------------------|
D|-2-2-2-5-5-5-7-7-7-9-9-9-9-9-9------|
A|-2-2-2-5-5-5-7-7-7-9-9-9-9-9-9------|
E|-0-0-0-3-3-3-5-5-5-7-7-7-7-7-7------|

[Chorus]

e|---------------------------------------------------------------------------|
B|---------------------------------------------------------------------------|
G|-------5-5-5-5-5-5-5-5-------5-5-5-5-5-5-5-5-------5-5-5-5-5-5-5-5---------|
D|-2-2-2-5-5-5-5-5-5-5-5-2-2-2-5-5-5-5-5-5-5-5-2-2-2-5-5-5-5-5-5-5-5---------|
A|-2-2-2-3-3-3-3-3-3-3-3-2-2-2-3-3-3-3-3-3-3-3-2-2-2-3-3-3-3-3-3-3-3---------|
E|-0-0-0-----------------0-0-0-----------------0-0-0-------------------------|

e|-----------------------|
B|-----------------------|
G|-7-7-7-7-9-------9-----|
D|-7-7-7-7-9-------9-----|
A|-5-5-5-5-7-------7-----|
E|-----------0-0-0-------|

e|---------------------------------------------------------------------------|
B|---------------------------------------------------------------------------|
G|-------5-5-5-5-5-5-5-5-------5-5-5-5-5-5-5-5-------5-5-5-5-5-5-5-5---------|
D|-2-2-2-5-5-5-5-5-5-5-5-2-2-2-5-5-5-5-5-5-5-5-2-2-2-5-5-5-5-5-5-5-5---------|
A|-2-2-2-3-3-3-3-3-3-3-3-2-2-2-3-3-3-3-3-3-3-3-2-2-2-3-3-3-3-3-3-3-3---------|
E|-0-0-0-----------------0-0-0-----------------0-0-0-------------------------|

e|-----------------------|
B|-----------------------|
G|-7-7-7-7-9-------9-----|
D|-7-7-7-7-9-------9-----|
A|-5-5-5-5-7-------7-----|
E|-----------0-0-0-------|



e|------------------------------------|
B|------------------------------------|
G|------------------------------------|
D|-2-2-2-5-5-5-7-7-7-9-9-9-9-9-9------|
A|-2-2-2-5-5-5-7-7-7-9-9-9-9-9-9------|
E|-0-0-0-3-3-3-5-5-5-7-7-7-7-7-7------|

e|------------------------------------|
B|------------------------------------|
G|------------------------------------|
D|-2-2-2-5-5-5-7-7-7-9-9-9-9-9-9------|
A|-2-2-2-5-5-5-7-7-7-9-9-9-9-9-9------|
E|-0-0-0-3-3-3-5-5-5-7-7-7-7-7-7------|

e|--------------------|
B|--------------------|
G|--------------------|
D|-2-2-2-5-5-5-7------|
A|-2-2-2-5-5-5-7------|
E|-0-0-0-3-3-3-5------|
https://primanota.ru/pixies/baals-back-chords.htm

Привет, гитарист!

Тебе подарок от сайта PrimaNota.ru

Забрать подарок
ВАМ ПОДАРКИ ОТ ПРОЕКТА
"ГИТАРНАЯ РЕВОЛЮЦИЯ"