Войти:  Facebook Google Twitter Vk Yandex Mail.ru
PrimaNota.ru - самый крупный в мире бесплатный архив песенных текстов, аккордов, табулатур и нот


Pixies - Talent - бас-таба

Печатать
ViraMusic 2019 в Петербурге 4 апреля 2019! Скидка 10%!

Talent

  • аккорды, текст

[Intro]

G|---------------------------------------------------------------------------|
D|---------------------------------------------------------------------------|
A|-------------------2-2-2-2-2-2-2-2-2-2-4-4-4-4-4-4-5-5-5-5-5-5-------------|
E|-4-4-4-4-4-4-4-4-4---------------------------------------------------------|

[Verse]

G|-----------------------------------------------------------|
D|-----------------------------------------------------------|
A|-4-4--4--------6-6--6-6-6--6-4-4--4--------6-6--6-6-6--6---|
E|--------7-7--7----------------------7-7--7-----------------|

G|------------------------------------------------------------------|
D|------------------------------------------------------------------|
A|-4-4--4--------6-6--6-6-6--6------------6-6--6-6-6--4-4-4-4-4-4-4-|
E|--------7-7--7----------------4-4-4-4-4---------------------------|

G|-----------------------------------------------------------|
D|-----------------------------------------------------------|
A|-4-4--4--------6-6--6-6-6--6-4-4--4--------6-6--6-6-6--6---|
E|--------7-7--7----------------------7-7--7-----------------|

G|------------------------------------------------------------------|
D|------------------------------------------------------------------|
A|-4-4--4--------6-6--6-6-6--6------------6-6--6-6-6--4-4-4-4-4-4-4-|
E|--------7-7--7----------------4-4-4-4-4---------------------------|

[Pre-Chorus]

G|--------------------------------------------------------------------------------------------------|
D|--------------------------------------------------------------------------------------------------|
A|-4-4-4-4-4-4---------6-6--4-4-4-4-4-4-4---------6-6--4-4-4-4-4-4---------6-6-----------6-6-6-6-6--|
E|-------------7-7-7-7--------------------7-7-7-7------------------7-7-7-7-----4-4-4-4-4------------|

G|---------------------------|
D|---------------------------|
A|-4-4-4-4-4-4-4-------------|
E|---------------------------|

[Chorus]

G|--------------------------------------------------------------------------------------------------|
D|--------------------------------------------------------------------------------------------------|
A|-4-4-4-4-4-4---------6-6--4-4-4-4-4-4-4---------6-6--4-4-4-4-4-4---------6-6-----------6-6-6-6-6--|
E|-------------7-7-7-7--------------------7-7-7-7------------------7-7-7-7-----4-4-4-4-4------------|

G|---------------------------|
D|---------------------------|
A|-4-4-4-4-4-4-4-------------|
E|---------------------------|

[Solo]


G|-----------------------------------------------------------|
D|-----------------------------------------------------------|
A|-4-4--4--------6-6--6-6-6--6-4-4--4--------6-6--6-6-6--6---|
E|--------7-7--7----------------------7-7--7-----------------|

G|------------------------------------------------------------------|
D|------------------------------------------------------------------|
A|-4-4--4--------6-6--6-6-6--6------------6-6--6-6-6--4-4-4-4-4-4-4-|
E|--------7-7--7----------------4-4-4-4-4---------------------------|

[Verse]

G|-----------------------------------------------------------|
D|-----------------------------------------------------------|
A|-4-4--4--------6-6--6-6-6--6-4-4--4--------6-6--6-6-6--6---|
E|--------7-7--7----------------------7-7--7-----------------|

G|------------------------------------------------------------------|
D|------------------------------------------------------------------|
A|-4-4--4--------6-6--6-6-6--6------------6-6--6-6-6--4-4-4-4-4-4-4-|
E|--------7-7--7----------------4-4-4-4-4---------------------------|

[Pre-Chorus]

G|--------------------------------------------------------------------------------------------------|
D|--------------------------------------------------------------------------------------------------|
A|-4-4-4-4-4-4---------6-6--4-4-4-4-4-4-4---------6-6--4-4-4-4-4-4---------6-6-----------6-6-6-6-6--|
E|-------------7-7-7-7--------------------7-7-7-7------------------7-7-7-7-----4-4-4-4-4------------|

G|---------------------------|
D|---------------------------|
A|-4-4-4-4-4-4-4-------------|
E|---------------------------|

[Outro]

G|---------------------------------------------------------------------------|
D|---------------------------------------------------------------------------|
A|-------------------2-2-2-2-2-2-2-2-2-2-4-4-4-4-4-4-5-5-5-5-5-5-------------|
E|-4-4-4-4-4-4-4-4-4---------------------------------------------------------|

G|---------------------------------------------------------------------------|
D|---------------------------------------------------------------------------|
A|-4---------6----4---------6----4---------6------------6--------------------|
E|------7--------------7--------------7---------4----------------------------|

   
https://primanota.ru/pixies/talent-chords.htm

Привет, гитарист!

Тебе подарок от сайта PrimaNota.ru

Забрать подарок
ВАМ ПОДАРКИ ОТ ПРОЕКТА
"ГИТАРНАЯ РЕВОЛЮЦИЯ"