Войти:  Facebook Google Twitter Vk Yandex Mail.ru
PrimaNota.ru - самый крупный в мире бесплатный архив песенных текстов, аккордов, табулатур и нот


Pixies - Might As Well Be Gone - табы, бас-таба

Печатать
ViraMusic 2019 в Петербурге 4 апреля 2019! Скидка 10%!

Might As Well Be Gone

  • аккорды, текст
  • gtp-табы

INTRO RIFF

e|---------------------------------------------------------------|
B|---------------------------------------------------------------|
G|-----4--5-----4--5-----4--5--5--4-----5--4---------------------|
D|--7--------7--------7--------------7--------7------------------|
A|---------------------------------------------------------------|
E|---------------------------------------------------------------|

VERSE

Am         C#        C
You're the chosen one
      D#          G 
But I could use a change
Am          C#      C
Even golden suns
         D#           G
Find the end of their reign

CHORUS

C   B                F   B
You might as well be gone
C   B                F   B
You might as well be gone
Am     
That's my speech
G             C
That's my song

VERSE

Am     C#             C
In the streets tonight
        D#           G
But the bars are all closed
Am       C#          C
We could meet tonight
           D#     G
But you're only a ghost

CHORUS

C   B                F   B
You might as well be gone
C   B                F   B
You might as well be gone
C   B                F   B
You might as well be gone
Am     
That's my speech
G             C
That's my song

BRIDGE

e|---------------------------------------------------------------|
B|---------------------------------------------------------------|
G|-----4--5-----4--5-----4--5--5--4-----5--4---------------------|
D|--7--------7--------7--------------7--------7------------------|
A|---------------------------------------------------------------|
E|---------------------------------------------------------------|

Am B C D# G
      Ahhhh...

OUTRO

C   B                F   B
You might as well be gone
C   B                F   B
You might as well be gone
C   B                F   B
You might as well be gone
C   B                F   B
You might as well be gone
Am     
That's my speech
G             C Am
That's my song



   
https://primanota.ru/pixies/might-as-well-be-gone-chords.htm

Привет, гитарист!

Тебе подарок от сайта PrimaNota.ru

Забрать подарок
ВАМ ПОДАРКИ ОТ ПРОЕКТА
"ГИТАРНАЯ РЕВОЛЮЦИЯ"