» 
 » 
The Witcher 3 - Hunt Or Be Hunted Ciri Battle Theme



Misc Computer Games - The Witcher 3 - Hunt Or Be Hunted Ciri Battle Theme - табы

Бесплатный вокальный онлайн-квест VOX7
E  :-------------------|
B  :-------------------|
G  :-------------------|
D  :-0-2-3-2-----------|
A  :-------------------|
E  :-------------------|  (x4)


E  :-----------------------|
B  :-----------------------|
G  :---------------2-------|
D  :-0-2-3-2-3-0-3---------|
A  :-----------------------|
E  :-----------------------| (x3)


E  :-------------------------|-----------------------------|
B  :-------------------------|-----------------3-----------|
G  :---------------2-1-2-----|-----------2-1-2---1---------|
D  :-0-2-3-2-3-0-3-----------|-0-2-3-2-3-------------------|
A  :-------------------------|-----------------------------|
E  :-------------------------|-----------------------------|


E  :------------------------------------------------|
B  :------------------------------------------------|
G  :---------------2-1-2-2-1-2-2-1-2-2--------------|
D  :-0-2-3-2-3-0-3-------------------------------0-0|
A  :------------------------------------------------|
E  :------------------------------------------------|


E  :------------------------|-------------------------|
B  :------------------------|-------------------------|
G  :------------------------|-------------------------|
D  :3-2-0-2-3-2-0-----------|3-2-0-2-3-2-0------------|
A  :--------------1-0-------|--------------0-1-3------|
E  :------------------------|-------------------------|  (x2)



E  :1-0---0-1-0------------|-1-0---0-1-0-------------|
B  :----3-------3----------|-----3-------3-----1-----|
G  :--------------3-2------|---------------2-3-------|
D  :-----------------------|-------------------------|
A  :-----------------------|-------------------------|
E  :-----------------------|-------------------------| (x3)


E  :1-----------------------|-------------------------|
B  :------------------------|-------------------------|
G  :------------------------|-------------------------|
D  :3-2-0-2-3-2-0-----------|3-2-0-2-3-2-0------------|
A  :--------------1-0-------|--------------0-1-3------|
E  :------------------------|-------------------------|


E  :---------------------------|
B  :---------------------------|
G  :2-------3-2-0--------------|
D  :--0-2-3-------3---0-2-0----|
A  :----------------4----------| 
E  :---------------------------| (x2)


E  :--------------------|--------------------|
B  :--------------------|----2---3-----------|
G  :2---0---2-----------|2-3-2---2-----------|
D  :0-3-3-2-0-----------|0-3-3-2-3-----------|
A  :--5-----------------|--------------------|
E  :--------------------|--------------------|



   

Misc Computer Games - The Witcher 3 - Hunt Or Be Hunted Ciri Battle Theme - ноты

(включить)
Другие материалы по этой песне:
  • Аккорды, текст

https://primanota.ru/misc-computer-games/witcher-3-hunt-or-be-hunted-ciri-battle-theme-chords.htm

Привет, гитарист!

Тебе подарок от сайта PrimaNota.ru

Забрать подарок
ВАМ ПОДАРКИ ОТ ПРОЕКТА
"ГИТАРНАЯ РЕВОЛЮЦИЯ"