Войти:  Facebook Google Twitter Vk Yandex Mail.ru
PrimaNota.ru - самый крупный в мире бесплатный архив песенных текстов, аккордов, табулатур и нот


Misc Computer Games - Megaman Zero - Resistance - табы, видео

Печатать
Лучшая metal-группа Петербурга

Megaman Zero - Resistance

  • аккорды и текст

e|---------------------------|
B|---------------------------|
G|---------------------------|
D|-0-0-0-0-0-0---------------|
A|---------------------------|
E|---------------------------|

e|-13--13--13h12---13--13--13h12----------------|
B|-11--11--11h10---11--11--11h10----------------|
G|----------------------------------------------|
D|----------------------------------------------|
A|----------------------------------------------|
E|----------------------------------------------|

e|-----------------------------------------------13--13---11h12-----------|
B|-3-5-6-8--6-8-6-5-3-1---3-5-6-8-6-8-10-8-6-5---11--11---13h10-----------|
G|------------------------------------------------------------------------|
D|------------------------------------------------------------------------|
A|------------------------------------------------------------------------|
E|------------------------------------------------------------------------|

e|---------------------------------------------------------------------13--13----13h12------------------|
B|-7---5---4---5~---7---5---4--2~---7---5---4---5~---5---7---9---10----11--11----11h10------------------|
G|------------------------------------------------------------------------------------------------------|
D|------------------------------------------------------------------------------------------------------|
A|------------------------------------------------------------------------------------------------------|
E|------------------------------------------------------------------------------------------------------|   
Добавлено: 10.10.2014
Другие материалы по этой песне:
  • Аккорды и текст

Страница создана 10.10.2014
https://primanota.ru/misc-computer-games/megaman-zero-resistance-chords.htm

Привет, гитарист!

Тебе подарок от сайта PrimaNota.ru

Забрать подарок
ВАМ ПОДАРКИ ОТ ПРОЕКТА
"ГИТАРНАЯ РЕВОЛЮЦИЯ"