Войти:  Facebook Google Twitter Vk Yandex Mail.ru
PrimaNota.ru - самый крупный в мире бесплатный архив песенных текстов, аккордов, табулатур и нот


Misc Computer Games - Life Is Strange - End Credits Max And Chloe - таба, видео

Печатать
Просмотров: 91
Лучшая metal-группа Петербурга

Life Is Strange - End Credits Max And Chloe

  • аккорды и текст

My Performance ~ Prendki

# CAPO 2

[Intro]

e|----------------------------------------------------------------|
B|--------1---------------1---------------1---------------1-------|
G|----0-------0-------0-------0-------0-------0-------0-------0---|
D|--2---2---2---2---2---2---2---2---2---2---2---2---2---2---2---2-|
A|3---------------3---------------3---------------3---------------|
E|----------------------------------------------------------------|


[Verse]

e|1---------------0-------------------0---0-------------------------------|
B|--------1---------------1-------3---------------1---------------3---1---|
G|----0-------0-------0-------0---------------0-------0-------0-----------|
D|--2---2---2---2---2---2---2---2---2---2---2---2---2---2---2---2---2---2-|
A|3---------------3---------------3-------3---------------3-------3-------|
E|------------------------------------------------------------------------|

e|----------------------------------------------------------------------------------------|
B|1---------------------------------------1---------------1-------------------------------|
G|--------2---------------2-----------0-------0-------0-------0---------------------------|
D|----3-------3-------3-------3-----2---2---2---2---2---2---2---2-------------------------|
A|--3---3---3---3---3---3---3---3-3---------------3---------------------------------------|
E|1---------------1-----------------------------------------------------------------------|

e|1---------------0---------------3-------------------------------------------------------|
B|--------1---------------1-----------1---0-------1---------------------------------------|
G|----0-------0-------0-------0-----------------------------------2-----------------------|
D|--2---2---2---2---2---2---2---2---2---2-----3-------3-------3-------3-------------------|
A|3---------------3---------------3---------3---3---3---3---3---3---3---3-----------------|
E|----------------------------------------1---------------1-------------------------------|

e|----------------------------------------------------------------------------------------|
B|--------1---------------1---------------1---------------1-------------------------------|
G|----0-------0-------0-------0-------0-------0-------0-------0---------------------------|
D|--2---2---2---2---2---2---2---2---2---2---2---2---2---2---2---2-------------------------|
A|3---------------3---------------3---------------3---------------------------------------|
E|----------------------------------------------------------------------------------------|

                                  ^
e|------------------------------------------------0--------------------------|
B|----------------1---------------3-------3---------------1------------------|
G|2-------2---------------2-------2---2-------2-------2-------2--------------|
D|----3-------3-------3-------3---0-0---0---0---0---2---2---2---2------------|
A|--3---3---3---3---3---3---3---3-0---------------0--------------------------|
E|1---------------1----------------------------------------------------------|

e|------------------------------------------------0--------------------------|
B|----------------1---------------3-----------------------1------------------|
G|0-------0---------------0-----------0-------0-------0-------0--------------|
D|----2-------2-------2-------2-----2---2---2---2---2---2---2---2------------|
A|--3---3---3---3---3---3---3---3-3-------3-------3--------------------------|
E|3---------------3----------------------------------------------------------|

                                  ^
e|------------------------------------------------0--------------------------|
B|----------------1---------------3-------3----------------------------------|
G|2-------2---------------2-------2---2-------2-----------1------------------|
D|----3-------3-------3-------3---0-0---0---0---0-----2-------2--------------|
A|--3---3---3---3---3---3---3---3-0-----------------2---2---2---2------------|
E|1---------------1-------------------------------0--------------------------|

e|------------------------------------------------0--------------------------|
B|----------------1---------------3------------------------------------------|
G|0-------0---------------0-----------0-------0-------0-------0--------------|
D|----2-------2-------2-------2-----2---2---2---2---2---2---2---2------------|
A|--3---3---3---3---3---3---3---3-3-------3-------3-------3------------------|
E|3---------------3----------------------------------------------------------|

... :)
Добавлено: 14.06.2018
Другие материалы по этой песне:
  • Аккорды и текст

Страница создана 14.06.2018
https://primanota.ru/misc-computer-games/life-is-strange-end-credits-max-and-chloe-chords.htm

Привет, гитарист!

Тебе подарок от сайта PrimaNota.ru

Забрать подарок
ВАМ ПОДАРКИ ОТ ПРОЕКТА
"ГИТАРНАЯ РЕВОЛЮЦИЯ"