Войти:  Facebook Google Twitter Vk Yandex Mail.ru
PrimaNota.ru - самый крупный в мире бесплатный архив песенных текстов, аккордов, табулатур и нот


Godspeed You Black Emperor - Sleep Broken Windows Locks Of Love Pt Iii - табы

Нотный режим - новая уникальная возможность на нашем сайте!

Godspeed You! Black Emperor - Broken Windows, Locks of Love Pt. III. (beginning 13:24 into Sleep)
     From Lift Your Skinny Fists Like Antennas to Heaven (2000)

This is the "Broken Windows..." section of Sleep, most of Monheim was already tabbed out, so figured I'd just
tab out the last half of the song. I got this tuning from the Monheim tab, so hopefully it's what's used on
the album. 


Right Gtr:
play this part about 100 times to start off the section
Db|---------------------|
Bb|---------------------|
F |---------------------|
Db|----8----8----8----8-|
Bb|-10---10---10---10---|
Eb|---------------------|

eventually switch to this at 15:00
Db|--------------------------|
Bb|--------------------------|
F |--------------------------| x4
Db|----7-----7-----7-----7---|
Bb|-8-----8-----8-----8------|
Eb|--------------------------|

Db|--------------------------|
Bb|--------------------------|
F |--------------------------| x4
Db|----10----10----10----10--|
Bb|-11----11----11----11-----|
Eb|--------------------------|

Db|--------------------------|
Bb|--------------------------|
F |----------8---------------| x4
Db|----10----------10----10--|
Bb|-11----11----11----11-----|
Eb|--------------------------|

Db|--------------------------|
Bb|--------------------------|
F |--------------------------| x4
Db|----7-----7-----7-----7---|
Bb|-8-----8-----8-----8------|
Eb|--------------------------|

Db|--------------------------|
Bb|--------------------------|
F |----------3---------------| x4
Db|----5-----------5-----5---|
Bb|-6-----6-----6-----6------|
Eb|--------------------------|

Db|--------------------------|
Bb|--------------------------|
F |--------------------------| x4
Db|----7-----7-----7-----7---|
Bb|-8-----8-----8-----8------|
Eb|--------------------------|

16:10 (Dist kicks in, speeds up)

Db|---------------------|
Bb|---------------------|
F |---------------------| x4
Db|----8----8----8----8-|
Bb|-10---10---10---10---|
Eb|---------------------|

   (right gtr)
Db|--------------------------|
Bb|--------------------------|
F |--------------------------|
Db|----10----10----10----10--|
Bb|-11----11----11----11-----|
Eb|--------------------------|
  |                          | x4
  |(acoustic gtr)            | 
Db|--------------------------|
Bb|-------10-------10--------|
F |----13----11----------13--|
Db|-12----------12----12-----|
Bb|--------------------------|
Eb|--------------------------|

Db|--------------------------|
Bb|--------------------------|
F |--------------------------|
Db|----12----12----12----12--|
Bb|-11----11----11----11-----|
Eb|--------------------------|
  |                          | x4
Db|--------------------------|
Bb|----11----11----11----11--|
F |-13----13----13----13-----|
Db|--------------------------|
Bb|--------------------------|
Eb|--------------------------|

Db|--------------------------|
Bb|--------------------------|
F |--------------------------|
Db|--------------------------|
Bb|-11~~--------11----11~~---|
Eb|--------------------------|
  |                          | x5
Db|--------------------------|
Bb|----13----13----13----13--|
F |-15----15----15----15-----|
Db|--------------------------|
Bb|--------------------------|
Eb|--------------------------|

16:52

(all 16th note strums, each beat, 4 picks, is denoted by '/')
   (right gtr)
Db|---------------------------------------------|
Bb|---------------------------------------------|
F |---------------------------------------------|
Db|-13-/-/-/-/-12-/-/-/-/-12-/-/-/-/-10-/-/-/-/-|
Bb|---------------------------------------------|
Eb|---------------------------------------------|
  |                                             |
  |(left gtr)                                   |
Db|---------------------------------------------|
Bb|---------------------------------------------|
F |---------------------------------------------|
Db|-8--/-/-/-/-7--/-/-/-/-----------------------|
Bb|----------------------8--/-/-/-/-6--/-/-/-/--|
Eb|---------------------------------------------|


Db|--------------------------------------------|
Bb|--------------------------------------------|
F |--------------------------------------------|
Db|-8-/-/-/-/-10-/-/-/-/-12-/-/-/-/------------|
Bb|---------------------------------6-/-/-/-/--|
Eb|--------------------------------------------|
  |                                            |
Db|--------------------------------------------|
Bb|--------------------------------------------|
F |--------------------------------------------|
Db|-8-/-/-/-/-7--/-/-/-/-----------------------|
Bb|----------------------8--/-/-/-/-6-/-/-/-/--|
Eb|--------------------------------------------|


Db|---------------------------------------------------|
Bb|---------------------------------------------------|
F |-----------------------16-/-/-13-/-/-18-/-/-16-/-/-|
Db|-13-/-/-/-/-15-/-/-/-/-----------------------------|
Bb|---------------------------------------------------|
Eb|---------------------------------------------------|
  |                                                   |
Db|---------------------------------------------------|
Bb|---------------------------------------------------|
F |-13-/-/-/-/-15-/-/-/-/-16--/-/-/-/---18--/-/-/-/---|
Db|---------------------------------------------------|
Bb|---------------------------------------------------|
Eb|---------------------------------------------------|



Db|-----------------------------------------------------|---------|
Bb|-18-/-/-/-16-/-15-/-/-/-/-15b(16)-/-/-/-/-13-/-/-/-/-|-13~~~---|
F |-----------------------------------------------------|---------|
Db|-----------------------------------------------------|---------|
Bb|-----------------------------------------------------|---------|
Eb|-----------------------------------------------------|---------|
  |                                                     |
Db|---------------------------17--/-/-/-/----19-/-/-/-/-|
Bb|-16--/-/-/-/---18-/-/-/-/----------------------------|
F |-----------------------------------------------------|
Db|-----------------------------------------------------|
Bb|-----------------------------------------------------|
Eb|-----------------------------------------------------|

18:00

Right Gtr:
Db|------------------------------------------------------------------------------------|
Bb|-8-8-8-8-8-8-8-8-8-8-8-10-10-10-11-11-10-10-10-10-10-10-10-10-8-8-8-10-10-10-13-13--|
F |------------------------------------------------------------------------------------|
Db|------------------------------------------------------------------------------------|
Bb|------------------------------------------------------------------------------------|
Eb|------------------------------------------------------------------------------------|

Db|-------------------------------------------------------------------------------------------------|
Bb|-11-11-11-11-11-11-11-11-15-15-15-13-13-13-11-11-13-13-13-13-13-13-13-13-13-13-13-11-11-11-10-10-|
F |-------------------------------------------------------------------------------------------------|
Db|-------------------------------------------------------------------------------------------------|
Bb|-------------------------------------------------------------------------------------------------|
Eb|-------------------------------------------------------------------------------------------------|

play that a bunch of times

Violin part:
Db|-------------------------------------------------------------------------------------------------|
Bb|-11~~------11---13---15--13~~------11---13---16--15~~------18---16---15--16~~------16---15---13--|
F |-------------------------------------------------------------------------------------------------|
Db|-------------------------------------------------------------------------------------------------|
Bb|-------------------------------------------------------------------------------------------------|
Eb|-------------------------------------------------------------------------------------------------|

20:25

Right Gtr:
Db|-----------------------------------|
Bb|-----------------------------------|
F |-11-11-11-11-11-11b(12)-11pb-11pb--| x8
Db|-----------------------------------|
Bb|-----------------------------------|
Eb|-----------------------------------|

Db|----------------------------------------------|
Bb|-------------------------10-10-10-11-11-13-13-|
F |-11-11-11-11-11-11-11-11----------------------| x8
Db|----------------------------------------------|
Bb|----------------------------------------------|
Eb|----------------------------------------------|
this guitar kinda delves into noise after this, centered around that E note


Hope that's enough to give you a solid base to playing this song   

Godspeed You Black Emperor - Sleep Broken Windows Locks Of Love Pt Iii - ноты

(включить)
Другие композиции этого автора:
Другие материалы по этой песне:
  • Аккорды, текст

https://primanota.ru/godspeed-you-black-emperor/sleep-broken-windows-locks-of-love-pt-iii-chords.htm

Привет, гитарист!

Тебе подарок от сайта PrimaNota.ru

Забрать подарок
ВАМ ПОДАРКИ ОТ ПРОЕКТА
"ГИТАРНАЯ РЕВОЛЮЦИЯ"