# 0 1 2 3 4 5 6 7 8 9 A B C D E F G H I J K L M N O P Q R S T U V W X Y Z
А Б В Г Д Е Ж З И І Й К Л М Н О П Р С Т У Ф Х Ц Ч Ш Щ Ы Э Ю Я
Войти:  Facebook Google Twitter Vk Yandex Mail.ru



Godspeed You Black Emperor - Chart 3 - табы

Онлайн-интенсив по вокалу
-------------------------------------------------------------------------------
                             "Chart #3" - Godspeed You! Black Emperor
-------------------------------------------------------------------------------

Tabbed by: Kid_Z

Tuning: Standard

This is what David Bryant plays during that freaky pastor's sermon.

e|------------------------------------|
B|------------------------------------|
G|----3-3-6-6-1-1-3-3-5-5-------------|
D|-------------------------4-4--------|
A|------------------------------------|
E|------------------------------------| x1

e|------------------------------------|
B|-------------------=----------------|
G|----3-3-6-6-1-1---------------------|
D|-----------------4-4-3-3------------|
A|------------------------------------| 
E|------------------------------------| x1

And then just repeat those two bits over and over.   

Godspeed You Black Emperor - Chart 3 - ноты

(включить)
Другие материалы по этой песне:
  • Аккорды, текст

https://primanota.ru/godspeed-you-black-emperor/chart-3-chords.htm

Привет, гитарист!

Тебе подарок от сайта PrimaNota.ru

Забрать подарок
ВАМ ПОДАРКИ ОТ ПРОЕКТА
"ГИТАРНАЯ РЕВОЛЮЦИЯ"