Войти:  Facebook Google Twitter Vk Yandex Mail.ru
PrimaNota.ru - самый крупный в мире бесплатный архив песенных текстов, аккордов, табулатур и нот


Born Of Osiris - The Other Half Of Me - табы

Печатать
Поддержи лучшую metal-группу Петербурга!

The Other Half Of Me


Artist: Born of Osiris
Song: The Other Half of Me
Tuning: Drop C
Tabbed by Lorcan Ward

Check out my cover video:
https://www.youtube.com/watch?v=Sq03a1lVgFE

Solo starts at 2:47

|----------------------13h17t18~~~~-----17b18r17\13--------------------|
|----------------------------------------------------15~~~~~~----------|
|------------14h15t19--------------------------------------------------|
|----------------------------------------------------------------------|
|--13h17t20------------------------------------------------------------|
|----------------------------------------------------------------------|

|------22------22\20------20\18--17-----------------------17b18r17-----|
|--18------18---------18-------------18----18b20r18--15------------18--|
|----------------------------------------------------------------------|
|----------------------------------------------------------------------|
|----------------------------------------------------------------------|
|----------------------------------------------------------------------|

|----------------------------------------------------------------------|
|--18/20---------------------------------------------------------------|
|---------19\17--15---17h19---14---b15~~~~~~~--------------------------|
|----------------------------------------------------------------------|
|----------------------------------------------------------------------|
|----------------------------------------------------------------------|

|---------------------------------------15-17-18-15-17b18~~------------|
|-----------15-16-18-16-15----15-16-18---------------------------------|
|--14-15-17----------------17------------------------------------------|
|----------------------------------------------------------------------|
|----------------------------------------------------------------------|
|----------------------------------------------------------------------|

|--13/15--------------------------17-18-20b22r20b22r20-----------------|
|------------------------------20-----------------------19~~-----------|
|--------19-15----------15-19------------------------------------------|
|--------------19----19------------------------------------------------|
|-----------------17---------------------------------------------------|
|----------------------------------------------------------------------|

|--------18----18\17----17-18-20-22----22----20----20----18----18------|
|--19h20----19-------19-------------20----20----20----20----20----20---|
|----------------------------------------------------------------------|
|----------------------------------------------------------------------|
|----------------------------------------------------------------------|
|----------------------------------------------------------------------|

|--17----17-----22----22----20----20----18----18----17----18----17~~~\-|
|-----18----18-----18----18----18----18----18----18----15----15--------|
|----------------------------------------------------------------------|
|----------------------------------------------------------------------|
|----------------------------------------------------------------------|
|----------------------------------------------------------------------|
   
Другие композиции этого автора:
Другие материалы по этой песне:

https://primanota.ru/born-of-osiris/other-half-of-me-chords.htm

Привет, гитарист!

Тебе подарок от сайта PrimaNota.ru

Забрать подарок
ВАМ ПОДАРКИ ОТ ПРОЕКТА
"ГИТАРНАЯ РЕВОЛЮЦИЯ"