Войти:  Facebook Google Twitter Vk Yandex Mail.ru
PrimaNota.ru - самый крупный в мире бесплатный архив песенных текстов, аккордов, табулатур и нот


Born Of Osiris - Glorious Day - табы

Печатать
Поддержи лучшую metal-группу Петербурга!

Glorious Day


[Glorious Day]
[Music Video]
[Born Of Osiris]

Tuning: C G C F A D
Playthrough: https://www.youtube.com/watch?v=GIQ6nGwXZic


[Riff 1, Guitar 1 & 2] - [00:35] - [00:40]
- -------------------------------------------------------------------------
- -------------------------------------------------------------------------
- -------------------------------------------------------------------------
- -------------------------------------------4-----------------------------
- -0-0---0---0---0---0-0-0-0-0---0---0---5-6---0-0---0---0---0---0-0-0-----
- -0-0---0---0---0---0-0-0-0-0---0---0---------0-0---0---0---0---0-0-0-1-0-
PM .........................................   .......................
- -------------------------------------------------------------------------
- -------------------------------------------------------------------------
- -------------------------------------------------------------------------
- -------------------------------------------7-----------------------------
- -0-0---0---0---0---0-0-0-0-0---0---0---8-9---0-0---0---0---0---0-0-0-----
- -0-0---0---0---0---0-0-0-0-0---0---0---------0-0---0---0---0---0-0-0-1-0-
PM .........................................   .......................


[Riff 2, Guitar 1 & 2] - [00:40] - [00:49]
- ---------------------------------------------------------------------
- ---------------------------------------------------------------------
- ---------------------------------------------------------------------
- -------------------/3\--/3\------------------/3\--/3\----------------
- ---0---0-0-0-0-0---0000-0000-0---0-0-0-0-0---0000-0000-0-0---000000--
- ---1---1-1-1-1-1---0000-0000-1---1-1-1-1-1---0000-0000-0-0---000000--
PM   ................................................................
- ---------------------------------------------------------------------
- ---------------------------------------------------------------------
- ---------------------------------------------------------------------
- -------------------/3\--/3\------------------/3\--/3\----------------
- ---0---0-0-0-0-0---0000-0000-0---0-0-0-0-0---0000-0000-0-0---000000--
- ---1---1-1-1-1-1---0000-0000-1---1-1-1-1-1---0000-0000-0-0---000000--
PM   ................................................................


- -------------------------------------
- -------------------------------------
- -------------------------------------
- ------[5\]----------------------[5\]-
- -00--0----0-0-0---000000--00--0------
- -00--0----0-0-0---000000--00--0------
PM .....    .....................
- -------------------------------------
- -------------------------------------
- ------[6\]----------------------[6\]-
- -------------------------------------
- -00--0----0-0-0---000000--00--0------
- -00--0----0-0-0---000000--00--0------
PM .....    .....................


[Riff 3, Guitar 1 & 2] - [00:49] - [00:55]
- -----------------------------------------------------------------
- -----------------------------------------------------------------
- -----------------------------------------------------------------
- -----------------------------------------------------------------
- -2222222---0-0-2---2-2-2---222-2-3333333---3-3-3---000-0-0000000-
- -2222222---0-0-2---2-2-2---222-2-3333333---3-3-3---000-0-0000000-
PM ...............................................................
- -----------------------------------------------------------------
- -----------------------------------------------------------------
- -----------------------------------------------------------------
- -----------------------------------------------------------------
- ---------------2---2-2-2---222-2-3333333---3-3-3---000-0-0000000-
- ---------------2---2-2-2---222-2-3333333---3-3-3---000-0-0000000-
PM ...............................................................


[Riff 4a] - [00:55] - [01:19]
- -----------------------------------------------------------------
- -----------------------------------------------------------------
- -----------------------------------------------------------------
- -----------------------------------------------------------------
- -0000000---0-0-0---0-0-0---000-0-8888888---8-8-8---555-5-5555555-
- -0000000---0-0-0---0-0-0---000-0-8888888---8-8-8---555-5-5555555-
PM ...............................................................

- -----------------------------------------------------------------
- -----------------------------------------------------------------
- -----------------------------------------------------------------
- -----------------------------------------------------------------
- -0000000---0-0-0---0-0-0---000-0-8888888---8-8-8---555-5-5555555-
- -0000000---0-0-0---0-0-0---000-0-8888888---8-8-8---555-5-5555555-
PM ...............................................................

- -------------------------------------------------------------------------
- -------------------------------------------------------------------------
- -------------------------------------------------------------------------
- -6-6-6-6-6-6-6-6-6-6-6-6-6-6-6-6-7-7-7-7-7-7-7-7-11-11-11-11-11-11-11-11-
- -4-4-4-4-4-4-4-4-4-4-4-4-4-4-4-4-5-5-5-5-5-5-5-5-9--9--9--9--9--9--9--9--
- -4-4-4-4-4-4-4-4-4-4-4-4-4-4-4-4-5-5-5-5-5-5-5-5-9--9--9--9--9--9--9--9--

- -------------------------------------------------------------------------
- -------------------------------------------------------------------------
- -------------------------------------------------------------------------
- -6-6-6-6-6-6-6-6-6-6-6-6-6-6-6-6-7-7-7-7-7-7-7-7-11-11-11-11-11-11-11-11-
- -4-4-4-4-4-4-4-4-4-4-4-4-4-4-4-4-5-5-5-5-5-5-5-5-9--9--9--9--9--9--9--9--
- -4-4-4-4-4-4-4-4-4-4-4-4-4-4-4-4-5-5-5-5-5-5-5-5-9--9--9--9--9--9--9--9--

[Riff 4b, Guitar 1 & 2] - [00:55] - [01:19]
- -15-14h15p14------------------------------------------------------------------------
- -------------15--------------------------------------------------13/15------17------
- ----------------14---------------------12--12/15------------------------------------
- ------------------------------------------------------------------------------------
- ------------------------------------------------------------------------------------
- ------------------------------------------------------------------------------------
-
- ------------------------------------------------------------------------------------
- ------------------------------------------------------------------------------------
- -12-11h12p11------------------------------------------------------------------------
- -------------12--------------------------------------------------10/12------14------
- ----------------12---------------------10--10/13------------------------------------
- ------------------------------------------------------------------------------------


- -15-14h15p14------------------------------------------------------------------------
- -------------15---------------------------------------------------------------------
- ----------------14---------------------12--12/15-----------------15/17------15------
- ------------------------------------------------------------------------------------
- ------------------------------------------------------------------------------------
- ------------------------------------------------------------------------------------
-
- ------------------------------------------------------------------------------------
- ------------------------------------------------------------------------------------
- -12-11h12p11------------------------------------------------------------------------
- -------------12---------------------------------------------------------------------
- ----------------12---------------------10--10/13-----------------13/15------13------
- ------------------------------------------------------------------------------------


- -19-18h19p18------------------------------------------------------------------------
- -------------19--------------------------------------------------17/19------21------
- ----------------18---------------------16--16/19------------------------------------
- ------------------------------------------------------------------------------------
- ------------------------------------------------------------------------------------
- ------------------------------------------------------------------------------------
-
- ------------------------------------------------------------------------------------
- ------------------------------------------------------------------------------------
- -16-15h16p15------------------------------------------------------------------------
- -------------16--------------------------------------------------14/16------18------
- ----------------16---------------------14--14/17------------------------------------
- ------------------------------------------------------------------------------------


- -19-18h19p18------------------------------------------------------------------------
- -------------19---------------------------------------------------------------------
- ----------------18---------------------16--16/19-----------------19/21------19------
- ------------------------------------------------------------------------------------
- ------------------------------------------------------------------------------------
- ------------------------------------------------------------------------------------
-
- ------------------------------------------------------------------------------------
- ------------------------------------------------------------------------------------
- -16-15h16p15------------------------------------------------------------------------
- -------------16---------------------------------------------------------------------
- ----------------16---------------------14--14/17-----------------17/19------17------
- ------------------------------------------------------------------------------------


[Riff 5] - [01:19] - [01:21]
- ---------------------------------
- ---------------------------------
- ---------------------------------
- -6-------------------------------
- -4-------------------------------
- -4-------------------------------


[Riff 6, Guitar 1 & 2] - [01:21] - [01:44] - [x2]
- --------------------------------------------------------------------
- -------------------------------------------------6-----------7--[6]-
- --------------------------------------------------------------------
- -----------------------------------------4-----------4--------------
- -0---0---0---6-6-5-5-6-------5-5-5---6-------6-----------6----------
- -0---0---0----------------------------------------------------------
PM .....................................               .....
- --------------------------------------------------------------------
- -------------------------------------------------9-----------10-----
- ----------------------------------------------------------------[8]-
- -----------------------------------------7-----------7--------------
- -0---0---0---9-9-8-8-9-------8-8-8---9-------9-----------9----------
- -0---0---0----------------------------------------------------------
PM .....................................               .....


- -------------------------------------------------------------
- ---------------------------------3-----------------------6---
- -------------------------------------------------------------
- -----------------------------------------3-3-3h4p3---3-------
- -0---0-0-0---4-4-4---3-3-2-2-3---------------------6---------
- -0---0-0-0---4-4-4---3-3-2-2-3-------------------------------
PM .............................           ...
- -------------------------------------------------------------
- ---------------------------------4-----------------------9---
- -------------------------------------------------------------
- -----------------------------------------6-6-6h7p6---6-------
- -0---0-0-0---4-4-4---3-3-2-2-3---------------------9---------
- -0---0-0-0---4-4-4---3-3-2-2-3-------------------------------
PM .............................           ...


- --------------------------------------------------------------------
- -------------------------------------------------6-----------7--[6]-
- --------------------------------------------------------------------
- -----------------------------------------4-----------4--------------
- -0---0---0---6-6-5-5-6-------5-5-5---6-------6-----------6----------
- -0---0---0----------------------------------------------------------
PM .....................................               .....
- --------------------------------------------------------------------
- -------------------------------------------------9-----------10-----
- ----------------------------------------------------------------[8]-
- -----------------------------------------7-----------7--------------
- -0---0---0---9-9-8-8-9-------8-8-8---9-------9-----------9----------
- -0---0---0----------------------------------------------------------
PM .....................................               .....


- ----------------------------------------------------------------------------------------------
- ---------------------------------3-----------------------6------------------------------------
- ----------------------------------------------------------------------------------------------
- -----------------------------------------3-3-3h4p3---3----------------------------------------
- -0---0-0-0---4-4-4---3-3-2-2-3---------------------6---------0---0----------------0---0-------
- -0---0-0-0---4-4-4---3-3-2-2-3-------------------------------1---1----------------1---1-------
PM .............................           ...                 ..........................
- ----------------------------------------------------------------------------------------------
- ---------------------------------4-----------------------9------------------------------------
- ----------------------------------------------------------------------------------------------
- -----------------------------------------6-6-6h7p6---6----------------------------------------
- -0---0-0-0---4-4-4---3-3-2-2-3---------------------9---------0---0----------------0---0-------
- -0---0-0-0---4-4-4---3-3-2-2-3-------------------------------1---1----------------1---1-------
PM .............................           ...                 ..........................


[Riff 7] - [01:44] - [01:57]
- ------------------------------------------------------------------
- ------------------------------------------------------------------
- ------------------------------------------------------------------
- ----------------------------[3b]----------------------------------
- -0-0---0-0---0-0---0-0---------------0-0------0-0---------3h6p3p0-
- -0-0---0-0---0-0---0-0---------------0-0-[3b]-0-0-0h1h4p0---------
PM .....................               ...      ...

- ------------------------------------------------------------------
- ------------------------------------------------------------------
- ------------------------------------------------------------------
- ----------------------------[3b]------------------------------4h7-
- -0-0---0-0---0-0---0-0---------------0-0------0-0---------3h6-----
- -0-0---0-0---0-0---0-0---------------0-0-[3b]-0-0-0h1h4p0---------
PM .....................               ...      ...

- ------------------------------------------------------------------
- ------------------------------------------------------------------
- ------------------------------------------------------------------
- ----------------------------[3b]----------------------------------
- -0-0---0-0---0-0---0-0---------------0-0------0-0---------3h6p3p0-
- -0-0---0-0---0-0---0-0---------------0-0-[3b]-0-0-0h1h4p0---------
PM .....................               ...      ...

- ------------------------------------------------------------------|----------
- ------------------------------------------------------------------|----------
- ------------------------------------------------------------------|----------
- ----------------------------[3b]------------------------------4h7-|-----7h10- second guitar
- -0-0---0-0---0-0---0-0---------------0-0------0-0---------3h6-----|-6h9------
- -0-0---0-0---0-0---0-0---------------0-0-[3b]-0-0-0h1h4p0---------|----------
PM .....................               ...      ...

[Riff 8a] - [01:57] - [02:22] - [x4]
- ---------------------------------------------------------------------
- ---------------------------------------------------------------------
- ---------------------------------------------------------------------
- -----------------------------------------/ 3 \ / 3 \-----------------
- -8-8-8-8-----8-8-8-8-----8-8-8-8-----8-8-8-8-8-8-8-8-8-8-------------
- -8-8-8-8-----8-8-8-8-----8-8-8-8-----8-8-8-8-8-8-8-8-8-8-------------
PM .......................................................

- ---------------------------------------------------------------------
- ---------------------------------------------------------------------
- ---------------------------------------------------------------------
- -----------------------------------------/ 3 \ / 3 \-----------------
- -0-0-0-0-----0-0-0-0-----0-0-0-0-----0-0-0-0-0-0-0-0-0-0-------------
- -0-0-0-0-----0-0-0-0-----0-0-0-0-----0-0-0-0-0-0-0-0-0-0-------------
PM .......................................................

[Riff 8b] - [01:57] - [02:28]
- -----------------------------------------------------------------
- -----------------------------------------------------------------
- -[6\]----3/--5-----------------------------------5br-------------
- -------------------------------------------------------------8---
- -----------------------------------------------------------------
- -----------------------------------------------------------------

- -----------------------------------------------------------------
- -----------------------------------------------------------------
- -5h7---------5h7---------5h7---------5h7-------------10--9-------
- -----5h7p5p0-----5h7p5p0-----5h7p5p0-----5h7p5p0-0-----------7---
- -----------------------------------------------------------------
- -----------------------------------------------------------------
PM                                                 .

- -----------------------------------------------------------------
- -----------------------------------------------------------------
- -----7\--5-------2br---------------------------------------------
- -0-----------0---------------3---------------3---3/5\3-----------
- ---------------------------------5---0---5-----------------------
- ---------------------------------------------------------5---3---
PM .           .

- -------------------------------------------------6--5h6p5--------
- ----------------------------------------------------------8--6---
- -----7\--5-------2br---------------------------------------------
- -0-----------0---------------3---------------3-------------------
- ---------------------------------5---0---5-----------------------
- -----------------------------------------------------------------
PM .           .

- ----------------------------------------------------------------------
- ----------------------------------------------------------------------
- ----------------------------------------------------------------------
- -0h3h5-0h5h7-0h7h8-0h8h10-0h10h12p0-0h3h5-0h5h7-0h7h8-0h8h10-0h10h12--
- ----------------------------------------------------------------------
- ----------------------------------------------------------------------

- --------------------------------------------------------------------
- --------------------------------------------------------------------
- --------------------------------------------------------10--9-------
- -0h3h5-0h5h7-0h7h8-0h8h10-0h10h12p0-0h3h5-0h5h7-0h7-0-----------7---
- --------------------------------------------------------------------
- --------------------------------------------------------------------
PM                                                    .

- ----------------------------------------------------------------------
- ----------------------------------------------------------------------
- ----------------------------------------------------------------------
- -0h3h5-0h5h7-0h7h8-0h8h10-0h10h12p0-0h3h5-0h5h7-0h7h8-0h8h10-0h10h12--
- ----------------------------------------------------------------------
- ----------------------------------------------------------------------

- ----------------------------------------------------6--5h6p5----------------------------------------
- -------------------------------------------------------------8--6-----------------------------------
- --------------------------------------------------------------------7-------------------------------
- -0h3h5-0h5h7-0h7h8-0h8h10-0h10h12p0-0h3h5-0h5h7-0h7-------------------------------------------------
- ----------------------------------------------------------------------------------------------------
- ----------------------------------------------------------------------------------------------------

[Riff 9c] - [02:22] - [2:28]
- ---------------------------------
- ---------------------------------
- ---------------------------------
- -10------------------------------
- -8-------------------------------
- -8-------------------------------

[Symbols]

PM... Palm Mute notes with (...) under them
AP... Alternate Pick notes with (...) under them
h     Hammer On
p     Pull Off
[ ]   Harmonic
/     Slide Up
\     Slide Down
x     Dead Note
b     Bend
hb    Hold Bend
pb    Pre-Bend
r     Release Bend
(x )  Play Notes x amount of times
~     Let Ring
\\\   Pick Slide Down
///   Pick Slide Up
/ 3 \ Notes are triplets (3 notes in the space of two)
w\    Whammy Bar Down
w/    Whammy Bar Up
wh    Whammy Bar Hold
T     Right Hand Tap
L     Left Hand Tap

:)
   
https://primanota.ru/born-of-osiris/glorious-day-chords.htm

Привет, гитарист!

Тебе подарок от сайта PrimaNota.ru

Забрать подарок
ВАМ ПОДАРКИ ОТ ПРОЕКТА
"ГИТАРНАЯ РЕВОЛЮЦИЯ"