» 
 » 
A Promise



Alan Silvestri - A Promise - табы

Чайковский в рок-аранжировке! Очень необычно, послушай!
-------------------------------------------------------------------------------
                             A Promise - Alan Silvestri
-------------------------------------------------------------------------------
Tabbed by: Willstett
E-mail: will.anstett@gmail.com

Tuning: Standard

     Em              C               G                      F#m
e: --------------------------------------------------------------------|
B: --------------------------------------0---0---0---0-----0-----------|
G: ------0---0---0-------0---0---0-----0---0---0---0---0-----2-----2---|
D: ----2---2---2---2---2---2---2---2---------------------0-----4-0-----|
A: ------------------3-------------------------------------------------|
E: --0-------------------------------3---------------------------------|
     Em              C               G                       F#m
e: --------------------------------------------------------------------|
B: --------------------------------------------------------------------|
G: ------0---0---0-------0---0---0-------0---0---0-------0-2-----0-2---|
D: ----2---2---2---2---2---2---2---2---0---0---0---0---0-------0-------|
A: ------------------3-------------------------------------------------|
E: --0-------------------------------3---------------3-------2---------|


************************************

| /   slide up
| \   slide down
| h   hammer-on
| p   pull-off
| ~   vibrato
| +   harmonic
| x   Mute note
| b   Bend
| pb  Pre-bend
| br  Bend release
| pbr Pre-bend release
| brb Bend release bend

************************************   

Alan Silvestri - A Promise - ноты

(включить)
Другие композиции этого автора:
Другие материалы по этой песне:
  • Аккорды, текст

https://primanota.ru/alan-silvestri/promise-chords.htm