» 
 » 
The Real Hero



Alan Silvestri - The Real Hero - аккорды

Чайковский в рок-аранжировке! Очень необычно, послушай!
Тональность: 
0
Масштаб: 
100%
Прокрутка: 
0
Проще!
Аппликатуры
Нотный режим
The Real Hero
Alan Silvestri
[ Предположительная тональность: D ]

e|---------------------------------------------------|
B|---0-------0-----1------3-----0--------------------|
G|--0----2---0----0------2-----0-----------------0-2-|
D|-------0-------------------------------------0-----|
A|---------------3-----------------------------------|
E|-3-----2---3----------2-----3----3---3---3---------|


e|------------------------------------------------------0---0-0----------|
B|---0-------0-----1------3-----0-----------------0---3-----1-----3---1-3|
G|--0----2---0----0------2-----0----------------0------------------------|
D|-------0---------------------------------------------------------------|
A|---------------3-------------------------------------------------------|
E|-3-----2---3----------2-----3----3---3---3-----------------------------|

Alan Silvestri - The Real Hero - ноты

(включить)
Другие материалы по этой песне:
  • Аккорды, текст

https://primanota.ru/alan-silvestri/real-hero-chords.htm

Привет, гитарист!

Тебе подарок от сайта PrimaNota.ru

Забрать подарок
ВАМ ПОДАРКИ ОТ ПРОЕКТА
"ГИТАРНАЯ РЕВОЛЮЦИЯ"