» 
 » 
Sun In Your Eyes



Above & Beyond - Sun In Your Eyes - табы

Чайковский в рок-аранжировке! Очень необычно, послушай!
-------------------------------------------------------------------------------
                       Above & Beyond - Sun in Your Eyes
-------------------------------------------------------------------------------

Tuning: EADGBe

Repeat this riff:

e|--------------------------------------------------------------------------------|
B|------10----10----------10----10-------------10----10-----------10----10--------|
G|---------11----11----------11----11-------------11----11-----------11----11-----|
D|--9-9---------------9-9----------------11-11--------------11-11-----------------|
A|--------------------------------------------------------------------------------|
E|--------------------------------------------------------------------------------|



e|--------------------------------------------------------------------------------|
B|--------10----10-----------10----10----------10----10----------10----10---------|
G|-----------11----11-----------11----11----------11----11----------11----11------|
D|--12-12--------------12-12--------------11-11------------11-11------------------|
A|--------------------------------------------------------------------------------|
E|--------------------------------------------------------------------------------|

   

Above & Beyond - Sun In Your Eyes - ноты

(включить)
Другие материалы по этой песне:
  • Аккорды, текст

https://primanota.ru/above-and-beyond/sun-in-your-eyes-chords.htm

Привет, гитарист!

Тебе подарок от сайта PrimaNota.ru

Забрать подарок
ВАМ ПОДАРКИ ОТ ПРОЕКТА
"ГИТАРНАЯ РЕВОЛЮЦИЯ"