PrimaNota.ru - самый крупный в мире бесплатный архив песенных текстов, аккордов, табулатур и нот


Zero Assoluto - Mezzora - аккорды и текст, таба, бас-таба, видео

Регистрация Запомнить меня
Войти через:  Facebook Google Twitter Vk Yandex Mail.ru

Zero Assoluto - Mezzora - аккорды и текст, таба, бас-таба, видео

Печатать
Просмотров: 261
Mezzora
Zero Assoluto
Zero Assoluto
Mezz'ora

Intro:
Guitar 1:
------------------------------------------------
------------------------------------------------
------------------------------------------------
--------------1--3--3-3-3-3-4-3-1-3-1-----------
--4-4-4-4-4----------------------------4-4------
------------------------------------------------

------------------------------------------------
------------------------------------------------
------------------------------------------------
------------------1--3--3-3-3-3-4-3-1-3-1-------
-3-4-3-4-4-4-4-4---------------------------4-4--
------------------------------------------------
Guitar 2:
4/4

  ^     V                 ^     ^
--------------        --------------
--------------        --------------  
--6-----6-----        --------------
--6-----6-----        ----6-----6---
--4-----4-----        ----6-----6---
--------------        ----4-----4---
  ^     V                 ^     ^
--------------        --------------
--------------        --------------
--------------        --------------    
--8-----8-----        ----4-----4---   
--8-----8-----        ----4-----4---
--6-----6-----        ----2-----2---
 
Repeat that until the end of song

Riff 2:
1:16    ;      3:02
whit chorus
      ^           ^
------5-----------2---------
------5-----------2---------
------6-----------3---------
------7-----------4---------
------7-----------4---------
------5-----------2---------
 
That's all. For any questions or criticism contact me
 jacopo14@hotmail.com>
HAVE FUN!

________________________________________________________________________________
     
Добавлено: 03.12.2013
Другие материалы по этой песне:
  • Аккорды и текст

Страница создана 09.06.2013
http://primanota.ru/zero-assoluto/mezzora-chords.htm
Привет, Гость.
Предлагаем пройти революционный курс по гитаре.
Подарок от PrimaNota.Ru, забирай!