PrimaNota.ru - самый крупный в мире бесплатный архив песенных текстов, аккордов, табулатур и нот


Zebrahead - With Friends Like These Who Needs Herpes - таба, видео

Регистрация Запомнить меня
Войти через:  Facebook Google Twitter Vk Yandex Mail.ru

Zebrahead - With Friends Like These Who Needs Herpes - таба, видео

Печатать
Просмотров: 130
Уроки эстрадного вокала в Санкт-Петербурге
Авторы: Zebrahead

Zebrahead- Call your friends- With friends like these, who need herpes?

Half step down. Not 100% about the chorus lead but I think the rest is correct, comments 
for improvement will be fully appreciated!


Bass notes to the piano part at the start, cool to distort on guitar ;)

eb---------------------------------------------------------|
Bb---------------------------------------------------------|
Gb---------------------------------------------------------|
Db---4-----3--6---4-------3-6------------------------------|
Ab-----5-4-----------5--4----------------------------------|
Eb---------------------------------------------------------|

Guitar 1

eb--------------------------------------19~|
Bb---10---7---6---9-12--10--14--18--21-----|
Gb-----------------------------------------|
Db-----------------------------------------|
Ab-----------------------------------------|
Eb-----------------------------------------|

Guitar 2

eb-----------------------------------------|
Bb-----------------------------------------|
Gb-----6-----6--10-------------------------|
Db--4--6--4--6--10-------------------------|
Ab--4--4--4--4--8--------------------------|
Eb--2-----2--------------------------------|

Guitar 1

eb----------------------------------------------------|
Bb-10-10-14-12-10-10-14-12----12-12-15-14-12b12b12b12b|
Gb----------------------------------------------------|
Db----------------------------------------------------|
Ab----------------------------------------------------|
Eb----------------------------------------------------|

eb----------------------------------------------------|
Bb-10-xx-14-12-10-10-14-12----12-12-15-14-12b12b12b12b|
Gb----------------------------------------------------|
Db----------------------------------------------------|
Ab----------------------------------------------------|
Eb----------------------------------------------------|


Guitar 2

eb-----------------------------------------|
Bb-----------------------------------------|
Gb-----7--4--6-----------------------------|
Db--4--7--4--6-----------------------------|
Ab--4--5--2--4-----------------------------|
Eb--2--------------------------------------|

Guitar 2

eb---------------------------------------------------|
Bb---------------------------------------------------|
Gb---------------------------------------------------|
Db----------------------------------7--6--4----------|
Ab------2-4--------4-5------2-4-----5--4--2--2-------|
Eb--2-2--------2-2------2-2------------------0-------|

Guitar 2

eb-----------------------------------------------------------------|
Bb-----------------------------------------------------------------|
Gb-----------------------------------------------------------------|
Db----------------------------------------------------77-66-44-----|
Ab------2h4p2-----------2h4p2------------2h4p2--------55-44-22-22--|
Eb--2-2-------5-4-0 2-2-------5-4-0--2-2-------5-4-0-----------00--|

Guitar 1

eb---------------------------------------------------------------------|
Bb---------------------------------------------------------------------|
Gb-1111-111111-111111-111111-99-999-999-999-88-888-888-888-77-777-7-6--|
Db-x-x--x-x-x--x-x-x--x-x-x--xx-xxx-xxx-xxx-xx-xxx-xxx-xxx-xx-xxx-x-x--|
Ab-9-9--9-9-9--9-9-9--9-9-9--77-777-777-777-66-666-666-666-55-555-5-4--|
Eb---------------------------------------------------------------------|

eb----------------------------------------------------|
Bb----------------------------------------------------|
Gb------------------------4~--------7~---10-----------|
Db-4~------------7~-------4~--------7~---10-----------|
Ab-4-------------7~-------2~--------5~---8------------|
Eb-2~------------5~-----------------------------------|

Guitar 1 Chorus

eb--17-16-14---------------17-16-14------------------|
Bb----------15-14-15-14-15----------15-14-15-14-15---|
Gb---------------------------------------------------|
Db---------------------------------------------------|
Ab---------------------------------------------------|
Eb---------------------------------------------------|
 
eb--16-14-13---------------16-14-13------------------|
Bb----------14-13-14-13-14----------14-13-14-13-14---|
Gb---------------------------------------------------|
Db---------------------------------------------------|
Ab---------------------------------------------------|
Eb---------------------------------------------------|

eb--17-16-14---------------17-16-14------------------|
Bb----------15-14-15-14-15----------15-14-15-14-15---|
Gb---------------------------------------------------|
Db---------------------------------------------------|
Ab---------------------------------------------------|
Eb---------------------------------------------------|

eb--17-16-14---------------16-14-13------------------|
Bb----------15-14-15-14-15----------14-13-14-13-14---|
Gb---------------------------------------------------|
Db---------------------------------------------------|
Ab---------------------------------------------------|
Eb---------------------------------------------------|



Guitar 2 Chorus

eb-----------------------------------------|
Bb-----------------------------------------|
Gb-----6--7--------------------------------|
Db--4--6--7--7-6---------------------------|
Ab--4--4--5--7-6---------------------------|
Eb--2--------5-4---------------------------|

Guitar 1 Solo

eb---------------------------------------------------------|
Bb---7-9-10--6-10-9---14-15-14----14-----------------------|
Gb-----------------------------16----16-14-16-14-13-14-13--|
Db---------------------------------------------------------|
Ab---------------------------------------------------------|
Eb---------------------------------------------------------|


eb-------------------------------4h5h4-----4h5p4---------------------|
Bb-------------------------------------6---------6-6/12--12-10-9-----|
Gb--11-13-14-16-14-13-10--6--------------6------------------------10-|
Db-------------------------------------------------------------------|
Ab-------------------------------------------------------------------|
Eb-------------------------------------------------------------------|

     *  *  *  *  Tremolo the note with stars above!
eb-------------------------------------------------------------|
Bb---15-14-12-10---/17-/18-/19---------------------------------|
Gb-------------------------------------------------------------|
Db-------------------------------------------------------------|
Ab-------------------------------------------------------------|
Eb-------------------------------------------------------------|

Guitar 2

eb-------------------------------------------------------|
Bb-------------------------------------------------------|
Gb-------7---6---10--------------------------------------|
Db---4---7---6---10--------------------------------------|
Ab---4---5---4---8---------------------------------------|
Eb---2---------------------------------------------------|

Guitar 2

eb------------------------------------------------------|
Bb------------------------------------------------------|
Gb------------------------------------------------------|
Db---4-4------------------------------------------------|
Ab---4-4------------------------------------------------|
Eb---2-2------------------------------------------------|

Thankyou :3

************************************

| /   slide up
| \   slide down
| h   hammer-on
| p   pull-off
| ~   vibrato
| +   harmonic
| x   Mute note
| b   Bend
| pb  Pre-bend
| br  Bend release
| pbr Pre-bend release
| brb Bend release bend

***********************************
Добавлено: 31.12.2013
Другие материалы по этой песне:

Страница создана 08.10.2013
http://primanota.ru/zebrahead/with-friends-like-these-who-needs-herpes-chords.htm
Привет, Гость.
Предлагаем пройти революционный курс по гитаре.
Подарок от PrimaNota.Ru, забирай!