PrimaNota.ru - самый крупный в мире бесплатный архив песенных текстов, аккордов, табулатур и нот


Zebrahead - The Art Of Breaking Up - текст песни, таба, видео

Регистрация Запомнить меня
Войти через:  Facebook Google Twitter Vk Yandex Mail.ru

Zebrahead - The Art Of Breaking Up - текст песни, таба, видео

Печатать
Просмотров: 164
-------------------------------------------------------------------------------
                             The Art Of Breaking Up - Zebrahead
-------------------------------------------------------------------------------
Tabbed by: whybutyeah
Email: chu_john62066@yahoo.com

Tuning: Standard



Intro
e|------------------|
B|------------------|
G|-33xxxx--33xxxx---|
D|-33xxxx--33xxxx---|
A|-11xxxx--11xxxx---|
E|------------------|

Leads(I think) not too sure but pretty close, so just mess with it
e|---------8-----6-----5------------------8-----6-----5-5----------|
B|-6-5-6-----6-----6-----6---6----6-5-6-----6-----6-------8-6-5-6~-|
G|-------5-----5-----5-----5------------5-----5-----5--------------| 2x
D|-----------------------------------------------------------------|
A|-----------------------------------------------------------------|
E|-----------------------------------------------------------------|

Intro 2
e|--------------------------------------------------|
B|--------------------------------------------------|
G|-------55---------33---------55-------------------|
D|-3333xx55---5555xx33---3333xx55---5555------------| 2x
A|-3333xx33---5555xx11---3333xx33---5555--1-0---0---|
E|-1111xx-----3333xx-----1111xx-----3333------3-----|

Verse 1
e|----------------------------------|
B|----------------------------------|
G|-------55--33-----------33--------|
D|-3333--55--33-----5555--33--77\---| 2x
A|-3333--33--11-----5555--11--77\---|
E|-1111-------------3333------55\---|

Verse 2
e|---------------------------------------------------------|
B|---------------------------------------------------------|
G|------------------5------5--------------------3------3---|
D|----3------3---55-5-5555-5------5------5---33-3-3333-3---|
A|-33-3-3333-3---33-3-3333-3---55-5-5555-5---11-1-1111-1---|
E|-11-1-1111-1-----------------33-3-3333-3-----------------|
pm ..   ....     ..   ....     ..   ....     ..   .... .

e|-----------------------------------------------------------|
B|-----------------------------------------------------------|
G|------------------5------5-----------------33xxxx-33xxxx---|
D|----3------3---55-5-5555-5------5------5---33xxxx-33xxxx---|
A|-33-3-3333-3---33-3-3333-3---55-5-5555-5---11xxxx-11xxxx---|
E|-11-1-1111-1-----------------33-3-3333-3-------------------|
pm ..   ....     ..   ....     ..   ....     

Chorus
e|---------------------------------------------|
B|---------------------------------------------|
G|-------55---------33---------55---------33---|
D|-3333xx55---5555xx33---3333xx55---5555--33---| 
A|-3333xx33---5555xx11---3333xx33---5555--11---|
E|-1111xx-----3333xx-----1111xx-----3333-------|

e|--------------------------------------------------|
B|--------------------------------------------------|
G|-------55---------33---------55-------------------|
D|-3333xx55---5555xx33---3333xx55---5555------------| 
A|-3333xx33---5555xx11---3333xx33---5555--1-0---0---|
E|-1111xx-----3333xx-----1111xx-----3333------3-----|

after the chorus u play:
Intro 2, but 1 time
Verse 1
Verse 2
Chorus

Bridge
e|---------------------------------------|
B|---------------------------------------|
G|----------55555555----------77777777---|
D|-55555555-55555555-77777777-77777777---|
A|-55555555-33333333-77777777-55555555---|
E|-33333333----------55555555------------|

e|-----|
B|-----|
G|-----|
D|--5--| 24x
A|--5--|
E|--3--|
pm  .

e|------------------------------------|
B|------------------------------------|
G|-33xxxx--33xxxx--33xxxx--33333333---|
D|-33xxxx--33xxxx--33xxxx--33333333---|
A|-11xxxx--11xxxx--11xxxx--11111111---|
E|------------------------------------|

Solo (I think) not 100% sure, but its close, so just mess around with it
e|-5-5~-------------------------------------------|
B|-8-8~-6-5-8-6---6---8---8---10-10-8-------------|
G|------------------------------------10-7--------|
D|--------------8---8---8---8--------------10-7---|
A|----------------------------------------------8-|
E|------------------------------------------------|
   ^ ^                           ^
e|-17-17~-13-12-13-15-13----13----15----15----17-17-15-----------------|
B|-20-20~----------------------------------------------18-15-----------|
G|-----------------------15----15----15----15----------------17-14-15\-|
D|---------------------------------------------------------------------|
A|---------------------------------------------------------------------|
E|---------------------------------------------------------------------|
   ^  ^                                          ^

Play Verse 1 during the solo
then:
Chorus
Intro 2, two times

Last Chorus
e|----------------------------------------------------------------|
B|----------------------------------------------------------------|
G|-------55--------33--------55-----------------------------------|
D|-3333xx55--5555xx33--3333xx55--55xxxx--55xxxx--55xxxx-----------|
A|-3333xx33--5555xx11--3333xx33--55xxxx--55xxxx--55xxxx-1-0---1---|
E|-1111xx----3333xx----1111xx----33xxxx--33xxxx--33xxxx-----3-----|

End On...
e|----|
B|----|
G|----|
D|-3--|
A|-3--|
E|-1--|


| /  slide up
| \  slide down
| h  hammer-on
| p  pull-off
| ~  vibrato
| +  harmonic
| x  Mute note
| ^  Bend 
Добавлено: 01.03.2012
Другие материалы по этой песне:

Страница создана 01.03.2012
http://primanota.ru/zebrahead/the-art-of-breaking-up-chords.htm
Привет, Гость.
Предлагаем пройти революционный курс по гитаре.
Подарок от PrimaNota.Ru, забирай!