PrimaNota.ru - самый крупный в мире бесплатный архив песенных текстов, аккордов, табулатур и нот


Zebrahead - Set-up - таба, видео

Регистрация Запомнить меня
Войти через:  Facebook Google Twitter Vk Yandex Mail.ru

Zebrahead - Set-up - таба, видео

Печатать
Просмотров: 85
Tabbed by: Moritz Fink

Tuning: EADGBE

This is my first tab; so please rate it!

Intro:
|------------------|------------------|------------------|------------------|
|------------------|------------------|------------------|------------------|
|------------------|------------------|------------------|------------------|
|------------------|------------------|------------------|------------------|
|-7-7-7-7-7-7-7-7--|-3-3-3-3-3-3-3-3--|------------------|-5-5-5-5-5-5-5-5--|
|------------------|------------------|-3-3-3-3-3-3-3-3--|------------------|

|------------------|------------------|------------------|------------------|
|------------------|------------------|------------------|------------------|
|------------------|------------------|------------------|-7----------------|
|------------------|------------------|------------------|-7----------------|
|-7-7-7-7-7-7-7-7--|-3-3-3-3-3-3-3-3--|------------------|-5----------------|
|------------------|------------------|-3-3-3-3-3-3-3-3--|------------------|

Bridge:
|------------------|------------------|------------------|------------------|
|------------------|------------------|------------------|------------------|
|-9-9-5-5-----7-7--|-9-9-5-5-----7-7--|-9-9-5-5-----7-7--|-9-9-5-5-----7-7--|
|-9-9-5-5-5-5-7-7--|-9-9-5-5-5-5-7-7--|-9-9-5-5-5-5-7-7--|-9-9-5-5-5-5-7-7--|
|-7-7-3-3-5-5-5-5--|-7-7-3-3-5-5-5-5--|-7-7-3-3-5-5-5-5--|-7-7-3-3-5-5-5-5--|
|---------3-3------|---------3-3------|---------3-3------|---------3-3------|

|---|
|---|
|-9-|
|-9-|
|-7-|
|---|

Pre-Verse: (2x)
|-12----12----12----12----15151515-|
|----------------------------------|
|----------------------------------|
|----------------------------------|
|----------------------------------|
|----------------------------------|
Pm       .

Verse: (2x)

Guitar 1:
|------------------|------------------|------------------|------------------|
|------------------|------------------|------------------|------------------|
|-99----------9999-|-55----------5555-|------------------|-77----------7777-|
|-99----------9999-|-55----------5555-|-55----------5555-|-77----------7777-|
|-77----------7777-|-33----------3333-|-55----------5555-|-55----------5555-|
|------------------|------------------|-33----------3333-|------------------|

Guitar 2: (4x)

|-12----12----12----12----15151515-|
|----------------------------------|
|----------------------------------|
|----------------------------------|
|----------------------------------|
|----------------------------------|
Pm       .

Pre-Chorus: (2x)
|------------------|------------------|------------------|------------------|
|------------------|------------------|------------------|------------------|
|-9-9-5-5-----7-7--|-9-9-5-5-----7-7--|-9-9-5-5-----7-7--|-9-9-5-5-----7-7--|
|-9-9-5-5-5-5-7-7--|-9-9-5-5-5-5-7-7--|-9-9-5-5-5-5-7-7--|-9-9-5-5-5-5-7-7--|
|-7-7-3-3-5-5-5-5--|-7-7-3-3-5-5-5-5--|-7-7-3-3-5-5-5-5--|-7-7-3-3-5-5-5-5--|
|---------3-3------|---------3-3------|---------3-3------|---------3-3------|

Chorus: (2x)
|------------------|------------------|------------------|------------------|
|------------------|------------------|------------------|------------------|
|-9-9---9-9--------|-5-5---5-5--------|------------------|-7-7---7-7--------|
|-9-9---9-9--------|-5-5---5-5--------|-5-5---5-5--------|-7-7---7-7--------|
|-7-7---7-7--------|-3-3---3-3--------|-5-5---5-5--------|-5-5---5-5--------|
|------------------|------------------|-3-3---3-3--------|------------------|
Pm  .     .           .     .            .     .             .     .

Bridge:
|------------------|------------------|------------------|------------------|
|------------------|------------------|------------------|------------------|
|-9-9-5-5-----7-7--|-9-9-5-5-----7-7--|-9-9-5-5-----7-7--|-9-9-5-5-----7-7--|
|-9-9-5-5-5-5-7-7--|-9-9-5-5-5-5-7-7--|-9-9-5-5-5-5-7-7--|-9-9-5-5-5-5-7-7--|
|-7-7-3-3-5-5-5-5--|-7-7-3-3-5-5-5-5--|-7-7-3-3-5-5-5-5--|-7-7-3-3-5-5-5-5--|
|---------3-3------|---------3-3------|---------3-3------|---------3-3------|

|---|
|---|
|-9-|
|-9-|
|-7-|
|---|

Pre-Verse: (2x)
|-12----12----12----12----15151515-|
|----------------------------------|
|----------------------------------|
|----------------------------------|
|----------------------------------|
|----------------------------------|
Pm       .

Verse: (2x)

Guitar 1:
|------------------|------------------|------------------|------------------|
|------------------|------------------|------------------|------------------|
|-99----------9999-|-55----------5555-|------------------|-77----------7777-|
|-99----------9999-|-55----------5555-|-55----------5555-|-77----------7777-|
|-77----------7777-|-33----------3333-|-55----------5555-|-55----------5555-|
|------------------|------------------|-33----------3333-|------------------|

Guitar 2: (4x)

|-12----12----12----12----15151515-|
|----------------------------------|
|----------------------------------|
|----------------------------------|
|----------------------------------|
|----------------------------------|
Pm       .

Pre-Chorus: (2x)
|------------------|------------------|------------------|------------------|
|------------------|------------------|------------------|------------------|
|-9-9-5-5-----7-7--|-9-9-5-5-----7-7--|-9-9-5-5-----7-7--|-9-9-5-5-----7-7--|
|-9-9-5-5-5-5-7-7--|-9-9-5-5-5-5-7-7--|-9-9-5-5-5-5-7-7--|-9-9-5-5-5-5-7-7--|
|-7-7-3-3-5-5-5-5--|-7-7-3-3-5-5-5-5--|-7-7-3-3-5-5-5-5--|-7-7-3-3-5-5-5-5--|
|---------3-3------|---------3-3------|---------3-3------|---------3-3------|

Chorus: (2x)
|------------------|------------------|------------------|------------------|
|------------------|------------------|------------------|------------------|
|-9-9---9-9--------|-5-5---5-5--------|------------------|-7-7---7-7--------|
|-9-9---9-9--------|-5-5---5-5--------|-5-5---5-5--------|-7-7---7-7--------|
|-7-7---7-7--------|-3-3---3-3--------|-5-5---5-5--------|-5-5---5-5--------|
|------------------|------------------|-3-3---3-3--------|------------------|
Pm  .     .           .     .            .     .             .     .

Bridge:
|------------------|------------------|------------------|------------------|
|------------------|------------------|------------------|------------------|
|-9-9-5-5-----7-7--|-9-9-5-5-----7-7--|-9-9-5-5-----7-7--|-9-9-5-5-----7-7--|
|-9-9-5-5-5-5-7-7--|-9-9-5-5-5-5-7-7--|-9-9-5-5-5-5-7-7--|-9-9-5-5-5-5-7-7--|
|-7-7-3-3-5-5-5-5--|-7-7-3-3-5-5-5-5--|-7-7-3-3-5-5-5-5--|-7-7-3-3-5-5-5-5--|
|---------3-3------|---------3-3------|---------3-3------|---------3-3------|

Interlude:

Guitar 1: (2x)
|------------------|------------------|------------------|------------------|
|------------------|------------------|------------------|------------------|
|-9~~~~~~~~~~~~~~~-|(5)~~~~~~~~~~~~~~-|------------------|(7)~~~~~~~~~~~~~~-|
|-9~~~~~~~~~~~~~~~-|(5)~~~~~~~~~~~~~~-|(5)~~~~~~~~~~~~~~-|(7)~~~~~~~~~~~~~~-|
|-7~~~~~~~~~~~~~~~-|(3)~~~~~~~~~~~~~~-|(5)~~~~~~~~~~~~~~-|(5)~~~~~~~~~~~~~~-|
|------------------|------------------|(3)~~~~~~~~~~~~~~-|------------------|

Guitar 2: (2x)
|------------------|------------------|------------------|------------------|
|------------------|------------------|------------------|------------------|
|------------------|------------------|------------------|------------------|
|---------------4--|---------------4--|---------------2--|------------------|
|/7~~~~~~~~~~~~----|-7~~~~~~~~~~~~----|-5~~~~~~~~~~~~----|-5~~~~~~~~-2---5--|
|------------------|------------------|------------------|------------------|

Both Guitars:
|------------------|------------------|------------------|------------------|
|------------------|------------------|------------------|------------------|
|-------------9----|-------------5----|------------------|-------------7--7-|
|-9-9-9-9-9-9-9----|-5-5-5-5-5-5-5----|-------------5----|-7-7-7-7-7-7-7-77-|
|-7-7-7-7-7-7-7----|-3-3-3-3-3-3-3----|-5-5-5-5-5-5-5----|-5-5-5-5-5-5-5-55-|
|------------------|------------------|-3-3-3-3-3-3-3----|------------------|

|------------------|------------------|------------------|------------------|
|------------------|------------------|------------------|------------------|
|-------------9----|-------------5----|------------------|-7-7-7-7-7-7-7-7--|
|-9-9-9-9-9-9-9----|-5-5-5-5-5-5-5----|-------------5----|-7-7-7-7-7-7-7-7--|
|-7-7-7-7-7-7-7----|-3-3-3-3-3-3-3----|-5-5-5-5-5-5-5----|-5-5-5-5-5-5-5-5--|
|------------------|------------------|-3-3-3-3-3-3-3----|------------------|

|------------------|------------------|------------------|------------------|
|------------------|------------------|------------------|------------------|
|-9-9-9-9-9-9-9-9--|-5-5-5-5-5-5-5-5--|------------------|-7-7-7-7-7-7-7-7--|
|-9-9-9-9-9-9-9-9--|-5-5-5-5-5-5-5-5--|-5-5-5-5-5-5-5-5--|-7-7-7-7-7-7-7-7--|
|-7-7-7-7-7-7-7-7--|-3-3-3-3-3-3-3-3--|-5-5-5-5-5-5-5-5--|-5-5-5-5-5-5-5-5--|
|------------------|------------------|-3-3-3-3-3-3-3-3--|------------------|

|------------------|------------------|------------------|------------------|
|------------------|------------------|------------------|------------------|
|-9-9-9-9-9-9-9-9--|-5-5-5-5-5-5-5-5--|------------------|-7-7-7-7-7-7-7-x--|
|-9-9-9-9-9-9-9-9--|-5-5-5-5-5-5-5-5--|-5-5-5-5-5-5-5-5--|-7-7-7-7-7-7-7-x--|
|-7-7-7-7-7-7-7-7--|-3-3-3-3-3-3-3-3--|-5-5-5-5-5-5-5-5--|-5-5-5-5-5-5-5-x--|
|------------------|------------------|-3-3-3-3-3-3-3-3--|------------------|

|------------------|
|------------------|
|-7-7-7-7-7-7-7-7--|
|-7-7-7-7-7-7-7-7--|
|-5-5-5-5-5-5-5-5--|
|------------------|

|-x----------------|-x----------------|-x----------------|-x----------------|
|-7~~~~~~~~~~~~~~--|-7~~~~~~~~~~~~~~--|-3~~~~~~~~~~~~~~--|-5~~~~~~~~~~~~~~--|
|-9~~~~~~~~~~~~~~--|-9~~~~~~~~~~~~~~--|-5~~~~~~~~~~~~~~--|-7~~~~~~~~~~~~~~--|
|-9~~~~~~~~~~~~~~--|-9~~~~~~~~~~~~~~--|-5~~~~~~~~~~~~~~--|-7~~~~~~~~~~~~~~--|
|-7~~~~~~~~~~~~~~--|-7~~~~~~~~~~~~~~--|-3~~~~~~~~~~~~~~--|-5~~~~~~~~~~~~~~--|
|-x----------------|-x----------------|-x----------------|-x----------------|

Bridge:
|------------------|------------------|------------------|------------------|
|------------------|------------------|------------------|------------------|
|-9-9-5-5-----7-7--|-9-9-5-5-----7-7--|-9-9-5-5-----7-7--|-9-9-5-5-----7-7--|
|-9-9-5-5-5-5-7-7--|-9-9-5-5-5-5-7-7--|-9-9-5-5-5-5-7-7--|-9-9-5-5-5-5-7-7--|
|-7-7-3-3-5-5-5-5--|-7-7-3-3-5-5-5-5--|-7-7-3-3-5-5-5-5--|-7-7-3-3-5-5-5-5--|
|---------3-3------|---------3-3------|---------3-3------|---------3-3------|

|---|
|---|
|-9-|
|-9-|
|-7-|
|---|
Pm.
Добавлено: 04.08.2013
Другие материалы по этой песне:
  • Аккорды и текст

Страница создана 04.08.2013
http://primanota.ru/zebrahead/set-up-chords.htm
Привет, Гость.
Предлагаем пройти революционный курс по гитаре.
Подарок от PrimaNota.Ru, забирай!