PrimaNota.ru - самый крупный в мире бесплатный архив песенных текстов, аккордов, табулатур и нот


Youth Lagoon - Cannons - таба, видео

Регистрация Запомнить меня
Войти через:  Facebook Google Twitter Vk Yandex Mail.ru

Youth Lagoon - Cannons - таба, видео

Печатать
Просмотров: 109
-------------------------------------------------------------------
                      Youth Lagoon - Cannons
-------------------------------------------------------------------

Tabbed by: Hunter Harpole
Email: guitartabman@gmail.com

I have tabbed out both the keyboard and the guitar parts to be played on guitar.  I am
very confident that I have tabbed everything out correctly but please don't hesitate to
leave a correction at the bottom.

Intro Chords:

Capo 1st Fret or add sharp to each chord!

C Am F C
Am G C

C              Am            F      C
Rolling up the windows of my ninety-six
Am           G          C
Buick so the rain can't get inside it

P = pause (basically this part is constant picking so only pause when it says to)

Intro Lead:

e-|-------9-------11-------9-------11-------9-p-|
B-|----11------11-------11------11-------11---p-|
G-|-13------13-------13------13-------13------p-|
D-|-------------------------------------------p-|
A-|-------------------------------------------p-|
E-|-------------------------------------------p-|

e-|-------9-------11--------16-p-------9-------11-|
B-|----11------11-------11--14-p----11------11----|
G-|-13------13-------13--------p-13------13-------|
D-|----------------------------p------------------|
A-|----------------------------p------------------|
E-|----------------------------p------------------|

e-|-------9-------11-------9-p-------9-------9-------9-|
B-|----11------11-------11---p----11------11------11---|
G-|-13------13-------13------p-13------13------13------|
D-|--------------------------p-------------------------|
A-|--------------------------p-------------------------|
E-|--------------------------p-------------------------|

Guitar Lead:

e-|-9-9----9-9----9-------9-9----9-9----9----|
B-|-----11-----11---9---------11-----11------|
G-|---------------------------------------10-|
D-|------------------------------------------|
A-|------------------------------------------|
E-|------------------------------------------|

e-|-9-9----9-9----9-------9-9----9--9--9-9-9-|
B-|-----11-----11---9---------11-------------|
G-|------------------------------------------|
D-|------------------------------------------|
A-|------------------------------------------|
E-|------------------------------------------|

Chords for when he starts singing "AH":

Capo 1st Fret or add a sharp to each chord!

Am G C F
Am G C

"AH" Lead:

e-|------9-------11--------13---------14----|
B-|----9---9---9----9----9----9----11----11-|
G-|-10-------8--------10--------11----------|
D-|-----------------------------------------|
A-|-----------------------------------------|
E-|-----------------------------------------|

e-|------9-------11--------13------|
B-|----9---9---9----9----9----9----|
G-|-10-------8--------10--------10-|
D-|--------------------------------|
A-|--------------------------------|
E-|--------------------------------|

Chords for "get your cannons ready!":

Capo 1st Fret or add sharp to each chord!

C Am F C
C Am F C

"Get your cannons ready!" Lead:
(Play this till end of song)

e-|----------------------------------------------|
B-|----11-14----11----11-------11-14----11-------|
G-|-13-------------13-------13-------------13----|
D-|-------------------------------------------15-|
A-|----------------------------------------------|
E-|----------------------------------------------|

e-|----------------------------------|
B-|----11-14----11----11-------------|
G-|-13-------------13-------13-------|
D-|----------------------------16-15-|
A-|----------------------------------|
E-|----------------------------------|

Ending Guitar Lead:

e-|-9-9----9-9----9-------9-9----9-9----9----|
B-|-----11-----11---9---------11-----11------|
G-|---------------------------------------10-|
D-|------------------------------------------|
A-|------------------------------------------|
E-|------------------------------------------|

e-|-9-9----9-9----9-------9-9----9--9--9-9-9-|
B-|-----11-----11---9---------11----9--9-9-9-|
G-|------------------------------------------|
D-|------------------------------------------|
A-|------------------------------------------|
E-|------------------------------------------|

Thanks, and please leave me suggestions or corrections in the comments.  If you are
going to rate less than 5 stars, please email me first so that I can correct the mistake
that you believe I have made.
Добавлено: 03.07.2013
Другие материалы по этой песне:
  • Аккорды и текст

Страница создана 03.07.2013
http://primanota.ru/youth-lagoon/cannons-chords.htm
Привет, Гость.
Предлагаем пройти революционный курс по гитаре.
Подарок от PrimaNota.Ru, забирай!