PrimaNota.ru - самый крупный в мире бесплатный архив песенных текстов, аккордов, табулатур и нот


Xtc - The Meeting Place - текст песни, бас-таба, видео

Регистрация Запомнить меня
Войти через:  Facebook Google Twitter Vk Yandex Mail.ru

Xtc - The Meeting Place - текст песни, бас-таба, видео

Печатать
Просмотров: 110
XTC - THE MEETING PLACE

THIS SONG IS IN E-FLAT TUNING, SO TUNE DOWN THE STRINGS HALF A STEP.

INTRO/VERSE

"Meet you at your secret place..."
Gb---------------------------------|
Db---------------------------------|
Ab----------2\14/2----------4--2---|
Eb-0---2-----------0---2-----------|

"Whistle will blow..."
Gb----------------------------------|
Db----------------------------------|
Ab--------------------------2\14/2--|
Eb-3-------2-------0---2------------|

Gb---------------------------------|
Db---------------------------------|
Ab----------2\14/2----------4--2---|
Eb-0---2-----------0---2-----------|

Gb----------------------------------|
Db----------------------------------|
Ab--------------------------2\14-0--|
Eb-3-------2-------0---2------------|

"Hmm hmm hmm, you're a working girl now..."
Gb-----2----------------------------------|
Db---------1------------------------------|
Ab-2-----------0-------2-4-----------2-4--|
Eb-----------------2-4-----0--0--2-4------| x2

CHORUS

Gb------------------------|
Db------------------------|
Ab-0--00---0--04---2--22--|
Eb---------------5/-------|

Gb----------------------------------|
Db----------------------------764/--|
Ab-0--00---0--04---2--22------------|
Eb---------------5/-------7--7------|

VERSE

Gb----------------------------------|
Db----------------------------------|
Ab----------2\14/2----------2\14/2--|
Eb-0---2-----------0---2------------|

"Strolling under grimy skies"
Gb---------------------------------|
Db---------------------------------|
Ab----------2\14/2----------4--2---|
Eb-0---2-----------0---2-----------|

"Smoke on your breath"
Gb----------------------------------|
Db----------------------------------|
Ab--------------------------2\14/2--|
Eb-3-------2-------0---2------------|

"Chimney never looked so good..."
Gb---------------------------------|
Db---------------------------------|
Ab----------2\14/2----------4--2---|
Eb-0---2-----------0---2-----------|

"Coat on the ground"
Gb----------------------------------|
Db----------------------------------|
Ab--------------------------2\14-0--|
Eb-3-------2-------0---2------------|

"Take a walk down the lane..."
Gb-----2----------------------------------|
Db---------1------------------------------|
Ab-2-----------0-------2-4-----------2-4--|
Eb-----------------2-4-----0--0--2-4------| x2

CHORUS

Gb------------------------|
Db------------------------|
Ab-0--00---0--04---2--22--|
Eb---------------5/-------|

Gb---------------------------------|
Db---------------------------------|
Ab-0--00---0--04---2--22--2--2246--|
Eb---------------5/----------------|

Gb------------------------|
Db------------------------|
Ab-0--00---0--04---2--22--|
Eb---------------5/-------|

Gb----------------------------------|
Db----------------------------764/--|
Ab-0--00---0--04---2--22------------|
Eb---------------5/-------7--7------|

Gb---------------------------------|
Db---------------------------------|
Ab----------2\14/2----------4--2---|
Eb-0---2-----------0---2-----------|

Gb-----------------------------|
Db-----------------------------|
Ab-----------------------------|
Eb-3----------2----------0>>>--| End on this and let it ring.
Добавлено: 27.06.2013
Другие материалы по этой песне:
  • Аккорды и текст

Страница создана 04.07.2012
http://primanota.ru/xtc/the-meeting-place-chords.htm
Привет, Гость.
Предлагаем пройти революционный курс по гитаре.
Подарок от PrimaNota.Ru, забирай!