PrimaNota.ru - самый крупный в мире бесплатный архив песенных текстов, аккордов, табулатур и нот


Xtc - Everything - аккорды и текст, видео

Регистрация Запомнить меня
Войти через:  Facebook Google Twitter Vk Yandex Mail.ru

Xtc - Everything - аккорды и текст, видео

Печатать
Просмотров: 162
Уроки эстрадного вокала в Санкт-Петербурге
Everything
Xtc
Everything
		by XTC (Andy Partridge demo)
		transcribed by Jeffrey Fariello (kingjeffe@aol.com)

This is a real good one from a demo collection I picked up.
Can't understand how it didn't make it onto an album. Yet!


Chords:
_____________________________________________________________
  Gsus4  Gmaj   G5   Csus4  Cmaj  C7M    Edim7(bass plays C#)
    
    3      3     3     1      0     0      0
    1      0     3     1      1     0      2
    0      0     0     0      0     0      0
    0      0     0     3      2     2      2
    -      -     -     3      3     3      1
    3      3     3     -      -     -      0
_____________________________________________________________

    D7  B11 D9add13? Fsus4 Bbsus2 Csus2 Dsus2 Dsus2b13?
                                                           
    2    0     0       1     1      3     5      6
    1    2     0       1     1      3     5      5
    2    2     5       3     3      5     7      7
    0    -     4       3     3      5     7      7
    -    2     5       3     1      3     5      5
    -    -     -       1     -      -     -      -
_____________________________________________________________


G major licks (between verses)

            Lick A                      Lick B
|---------------------------|----------------------------|   
|---------------------------|----------------------------|
|-----------------0--0------|----------------------------|
|--------------0--------2---|---------------0--2--2--0---|
|-----0--2--3---------------|------0--2--3---------------|
|---3-----------------------|---3------------------------|

**************************************************************************
Verses:
--------------------------------------------------------------------------
Gsus4-Gmaj  Gsus4-Gmaj  Gsus4-Gmaj  Gmaj-Gsus4-G5-Gsus4-Gmaj

Everything, everything, everything, ...
--------------------------------------------------------------------------
Gmaj-Gsus4-G5-Gsus4-Gmaj    Gsus4-Gmaj Gsus4-Gmaj   Csus4        Cmaj

went  in   a  box   labeled "us" ...
--------------------------------------------------------------------------
Gsus4-Gmaj  Gsus4-Gmaj  Gsus4-Gmaj  Gmaj-Gsus4-G5-Gsus4-Gmaj 

Everything, everything, ...
--------------------------------------------------------------------------
Gmaj-Gsus4-G5-Gsus4-Gmaj    Gsus4-Gmaj     Gsus4-Gmaj   Csus4        Cmaj

stored in  a   jar  which i swear had ....

 

     
Добавлено: 07.12.2013
Другие материалы по этой песне:
  • Аккорды и текст

Страница создана 04.10.2013
http://primanota.ru/xtc/everything-chords.htm
Привет, Гость.
Предлагаем пройти революционный курс по гитаре.
Подарок от PrimaNota.Ru, забирай!