PrimaNota.ru - самый крупный в мире бесплатный архив песенных текстов, аккордов, табулатур и нот


Xtc - Paper And Iron (notes And Coins) - текст песни, бас-таба, видео

Регистрация Запомнить меня
Войти через:  Facebook Google Twitter Vk Yandex Mail.ru

Xtc - Paper And Iron (notes And Coins) - текст песни, бас-таба, видео

Печатать
Просмотров: 91
Уроки эстрадного вокала в Санкт-Петербурге
XTC - PAPER AND IRON (NOTES AND COINS)

THE BEST TRACK FROM THEIR BEST ALBUM. ABSOLUTE HIDDEN GEM.

INTRO/MAIN RIFF

G-----------------------------------------------------|
D-7------------7------------7------------7------------|
A--7-7--7-5-5---7-7--7-5-5---7-7--7-5-5---7-7--7-5-5--|
E---8--8-8-------8--8-8-------8--8-8-------8--8-8-----| x2

"I pray the kids aren't starving..."

G--------------------------|
D---------------810-10-10--|
A-7-7776-4-3\-10-----------|
E--------------------------| x3

G--------------|
D--------------|
A-7-7776-4-3\--|
E--------------| x1

G---------------------------------|
D---------------------------------|
A---------------------------------|
E-8-8-8-8-8-8-8/3-3-3-3-3-3-3-3\--| cont...

G----------------------------------------------------|
D---------------------------------------------88888--|
A----------------------------------------------------|
E-6-6-6-6-6-6-6-6/1-1-1-1\4-4-4-4-4-4-4-4-6----------| x1

G-----------------------------------------------------|
D-7------------7------------7------------7------------|
A--7-7--7-5-5---7-7--7-5-5---7-7--7-5-5---7-7--7-5-5--|
E---8--8-8-------8--8-8-------8--8-8-------8--8-8-----| x2

"I pray the kids aren't starving..."

G--------------------------|
D---------------810-10-10--|
A-7-7776-4-3\-10-----------|
E--------------------------| x3

G--------------|
D--------------|
A-7-7776-4-3\--|
E--------------| x1

G---------------------------------|
D---------------------------------|
A---------------------------------|
E-8-8-8-8-8-8-8/3-3-3-3-3-3-3-3\--| cont...

G----------------------------------------------------|
D---------------------------------------------88888--|
A----------------------------------------------------|
E-6-6-6-6-6-6-6-6/1-1-1-1\4-4-4-4-4-4-4-4-6----------| x1

G-----------------------------------------------------|
D-7------------7------------7------------7------------|
A--7-7--7-5-5---7-7--7-5-5---7-7--7-5-5---7-7--7-5-5--|
E---8--8-8-------8--8-8-------8--8-8-------8--8-8-----| x1

"I'm still proud, man..."

G------------------------------------------|
D------------------------------------------|
A---------7-7-7-7/----3h5-3h5-3--33h5-3h5--|
E-2-2-2-2\--------3--3---------------------| x1

"A blend in the crowd, man..."

G------------------------------------------|
D------------------------------------------|
A---------7-7-7-7/----3h5-3h5-3--33h5-3h5--|
E-2-2-2-2\--------3--3---------------------| x1

G--------------------------------------------------|
D--------------------------------------------------|
A-----3h5-3h5-3--33h5-3h5-----3h5-3h5-3--33h5-3h5--|
E-3--3--------------------3--3---------------------|

G------------------------------33333----|
D---------------------------------------|
A-----3h5-3h5-3--33h5-3h5--1------------|
E-3--3----------------------------------| x1

G-----------------------------------------------------|
D-7------------7------------7------------7------------|
A--7-7--7-5-5---7-7--7-5-5---7-7--7-5-5---7-7--7-5-5--|
E---8--8-8-------8--8-8-------8--8-8-------8--8-8-----| x4

"I pray the kids aren't starving..."

G--------------------------|
D---------------810-10-10--|
A-7-7776-4-3\-10-----------|
E--------------------------| x3

G--------------|
D--------------|
A-7-7776-4-3---|
E--------------| x1

G-----------------------------------------------------|
D-7------------7------------7------------7------------|
A--7-7--7-5-5---7-7--7-5-5---7-7--7-5-5---7-7--7-5-5--|
E---8--8-8-------8--8-8-------8--8-8-------8--8-8-----| x3

G-----------------|
D-7---------------|
A--7-7--7-5-5>>>--|
E---8--8-8--------| End on this and let it ring.
Добавлено: 08.08.2013
Другие материалы по этой песне:
  • Аккорды и текст

Страница создана 21.04.2012
http://primanota.ru/xtc/paper-and-iron-notes-and-coins-chords.htm
Привет, Гость.
Предлагаем пройти революционный курс по гитаре.
Подарок от PrimaNota.Ru, забирай!