PrimaNota.ru - самый крупный в мире бесплатный архив песенных текстов, аккордов, табулатур и нот


Xtc - Rocket From a Bottle - текст песни, бас-таба, видео

Регистрация Запомнить меня
Войти через:  Facebook Google Twitter Vk Yandex Mail.ru

Xtc - Rocket From a Bottle - текст песни, бас-таба, видео

Печатать
Просмотров: 114
Уроки эстрадного вокала в Санкт-Петербурге
XTC - ROCKET FROM A BOTTLE

INTRO/MAIN RIFF

G-------------|
D--2h3-2h3----|
A-----3---2h3-|
E-1-----------|

PLAY UNTIL (0.29)

G------------------|
D------------------|
A-3-3-3-3-2-2-2-2--|
E--3-3-3-3-3-3-3-3-|

BACK TO MAIN RIFF AT (0.34)

G-------------|
D--2h3-2h3----|
A-----3---2h3-|
E-1-----------|

PLAY UNTIL (0.43)

G---------------------|
D---------------------|
A-3-3-3-3-2-2-2-2\----|
E--3-3-3-3-3-3-3------|

(0.46)

G--------------------|
D--------------------|
A-6--8-6--6-6-8-6----|
E---8----8---8----8--|

G---10--10--------10--------10--10--------10--------|
D----------8101010--101010----------101010--1010----|
A-88--88------------------88--88--88------------8/--|
E---------------------------------------------------|

G-----------------------------------|
D-----------------------------------|
A-33333---33333---33333---33333333--|
E------333-----333-----333----------|

BACK TO MAIN RIFF AT (1.03)

G-------------|
D--2h3-2h3----|
A-----3---2h3-|
E-1-----------|

PLAY UNTIL (1.26)

G------------------|
D------------------|
A-3-3-3-3-2-2-2-2--|
E--3-3-3-3-3-3-3-3-|

BACK TO MAIN RIFF AT (1.30)

G-------------|
D--2h3-2h3----|
A-----3---2h3-|
E-1-----------|

(1.40)

G-------------------|
D-------------------|
A-3-3-3-3-2-2-2-2\--|
E--3-3-3-3-3-3-3----|

(1.43)

G--------------------|
D--------------------|
A-6--8-6--6-6-8-6----|
E---8----8---8----8--|

G---10--10--------10--------10--10--------10--------|
D----------8101010--101010----------101010--1010----|
A-88--88------------------88--88--88------------8/--|
E---------------------------------------------------|

G------------------------------------|
D------------------------------------|
A-33333---33333---33333---33333333\--|
E------333-----333-----333-----------|

G---10--10--------10--------10--10--------10--------|
D----------8101010--101010----------101010--1010----|
A-88--88------------------88--88--88------------8/--|
E---------------------------------------------------|

G------------------------------------|
D------------------------------------|
A-33333---33333---33333---33333333---|
E------333-----333-----333-----------|


(2.14)


G------------------------------------|
D------------------------------------|
A---------------3333333322222222\----|
E-1(x32)-4(x16)----------------------|


(2.27)


G---9--9-----9--9---9--9-----9-------|
D-------77999--9-9------77999--------|
A-77-77-----------77-77-------77/----|
E------------------------------------|


(2.34)


G------------------------------------|
D------------------------------------|
A-22222---22222---22222---22222222\--|
E------222-----222-----222-----------|

G---9--9-----9--9---9--9-----9-------|
D-------77999--9-9------77999--------|
A-77-77-----------77-77-------77/----|
E------------------------------------|

G------------------------------------|
D------------------------------------|
A-22222---22222---22222---22222222\--|
E------222-----222-----222-----------|

G---9--9-----9--9---9--9-----9-------|
D-------77999--9-9------77999--------|
A-77-77-----------77-77-------77/----|
E------------------------------------|

G------------------------------------|
D------------------------------------|
A-22222---22222---22222---22222222---|
E------222-----222-----222-----------|


STOP PLAYING UNTIL (3.14)


G---9--9--9--9------9--9--9--9---------|
D--------------------------------------|
A-77-77-77-77--77777-77-77-77--777\----|
E--------------------------------------|

G-----------|
D-----------|
A--4>>>>----|
E-----------| End on this and let it ring out.
Добавлено: 09.06.2013
Другие материалы по этой песне:

Страница создана 28.02.2012
http://primanota.ru/xtc/rocket-from-a-bottle-chords.htm
Привет, Гость.
Предлагаем пройти революционный курс по гитаре.
Подарок от PrimaNota.Ru, забирай!