PrimaNota.ru - самый крупный в мире бесплатный архив песенных текстов, аккордов, табулатур и нот


Wye Oak - Two Small Deaths - таба, видео

Регистрация Запомнить меня
Войти через:  Facebook Google Twitter Vk Yandex Mail.ru

Wye Oak - Two Small Deaths - таба, видео

Печатать
Просмотров: 219
wye oak
two small deaths
from the album civilian

guitar tuning:
drop D+G (DGDGBe)

6/8 time, ~80bpm

intro/verse:

E||-----------------||---------------------------|----------------------------||
B||-----------------||---------------------------|----------------------------||
G||-----------------||*--------------------------|---------------------------*||
D||-----------------||*--------0-----------0-----|--------0------------0-----*||
G||-----------------||-----0-2---------0-2-------|----0-4----------0-9--------||
D||---------------0-||---3---------0-3---------0-|--5---------0-10---------0--||

every fourth repetition has this slight variation (the extra open string at the end):
|--------------------------|---------------------------||
|--------------------------|---------------------------||
|--------------------------|-----------------------0---||
|--------0-----------0-----|--------0------------0-----||
|----0-2---------0-2-------|----0-4----------0-9-------||
|--3---------0-3---------0-|--5---------0-10---------0-||


chorus is strummed, just move the same shape to the different positions:

||--------------------------------|---------------------------------|
||--------------------------------|---------------------------------|
||*----9----9----9----9----9----9-|-----9----9----9----9----9----9/-|
||*--0-0--0-0--0-0--0-0--0-0--0-0-|---0-0--0-0--0-0--0-0--0-0--0-0--|
||---9-9--9-9--9-9--9-9--9-9--9-9-|---9-9--9-9--9-9--9-9--9-9--9-9/-|
||--10---10---10---10---10---10---|--10---10---10---10---10---10--/-|


--------------------------|---------------------------|
--------------------------|---------------------------|
-/2-2---2---2---2---2---2-|----2---2---2---2---2---2/-|
--0-0-0-0-0-0-0-0-0-0-0-0-|--0-0-0-0-0-0-0-0-0-0-0-0--|
-/2-2-2-2-2-2-2-2-2-2-2-2-|--2-2-2-2-2-2-2-2-2-2-2-2/-|
-/3---3---3---3---3---3---|--3---3---3---3---3---3--/-|


--------------------------|---------------------------|
--------------------------|---------------------------|
-/4-4---4---4---4---4---4-|----4---4---4---4---4---4\-|
--0-0-0-0-0-0-0-0-0-0-0-0-|--0-0-0-0-0-0-0-0-0-0-0-0--|
-/4-4-4-4-4-4-4-4-4-4-4-4-|--4-4-4-4-4-4-4-4-4-4-4-4\-|
-/5---5---5---5---5---5---|--5---5---5---5---5---5--\-|


--------------------------|----------------------------||
--------------------------|----------------------------||
--2-2---2---2---2---2---2-|----2---2---2---2---2---2/-*||
--0-0-0-0-0-0-0-0-0-0-0-0-|--0-0-0-0-0-0-0-0-0-0-0-0--*||
--2-2-2-2-2-2-2-2-2-2-2-2-|--2-2-2-2-2-2-2-2-2-2-2-2/--||
--3---3---3---3---3---3---|--3---3---3---3---3---3--/--||


there is also a subtle bass part underneath the guitars in the chorus (standard tuning):

||----------------------|-----------------------|
||*------5--5------5--5-|-------5--5------5--5/-|
||*-3--3------3--3------|--3--3------3--3-----/-|
||----------------------|-----------------------|

--------------------------|---------------------------|
-------10--10------10--10-|-------10--10------12--12\-|
--8--8--------8--8--------|--8--8--------8--8-------\-|
--------------------------|---------------------------|

------------------------------|-------------------------------|
---------12--12--------12--12-|---------14--14--------12--12\-|
--10--10--------10--10--------|--10--10--------10--10-------\-|
------------------------------|-------------------------------|


--------------------------|---------------------------||
-------10--10------10--10-|-------12--12------10--10-*||
--8--8--------8--8--------|--8--8--------8--8--------*||
--------------------------|---------------------------||
Добавлено: 03.11.2013
Другие материалы по этой песне:

Страница создана 15.07.2013
http://primanota.ru/wye-oak/two-small-deaths-chords.htm
Привет, Гость.
Предлагаем пройти революционный курс по гитаре.
Подарок от PrimaNota.Ru, забирай!