PrimaNota.ru - самый крупный в мире бесплатный архив песенных текстов, аккордов, табулатур и нот


Wolf Alice - White Leather - таба, видео

Регистрация Запомнить меня
Войти через:  Facebook Google Twitter Vk Yandex Mail.ru

Wolf Alice - White Leather - таба, видео

Печатать
Просмотров: 160
Really nice song. B-Side to the 'Fluffy' single.

Played in Drop D tuning.

Enjoy.

INTRO/VERSE

Guitar 1

E|--------------------------------------------------------------------------------------|
B|--------------------------------------------------------------------------------------|
G|--------------------------------------------------------------------------------------|
D|-----------------------0--0--------------------7-----7-----7--------------------------|
A|-----7-----7-----7--------------0--0-----0-----------------------7--7-----7--7-----7--|
E|--5-----5-----5-----5--------0--------0-----9-----9-----9-----9--------7--------7-----|



E|----------------------------------------------------------------------------------------|
B|----------------------------------------------------------------------------------------|
G|----------------------------------------------------------------------------------------|
D|----------------------------------------------------------------------------------------|
A|-----7-----7-----7-----7/9--9-----9--9-----9-----4-----4-----4-----5--5-----5--5-----5--|
E|--5-----5-----5-----5----------0--------0-----7-----7-----7-----7--------5--------5-----|

PRE-CHORUS

Guitar 1

E|-------------------------------------------------------------------------------------------|
B|-------------------------------------------------------------------------------------------|
G|-------------------------------------------------------------------------------------------|
D|-------------------------------------------------------------------------------------------|
A|-----5-----5--5-----5-----12-----12--12-----12-----7-----7--7-----7-----5------5--5-----5--|
E|--5-----5--------5-----9------9----------9------7-----7--------7-----5-----5--------5------|

CHORUS

Guitar 1

E|--------------------------------------------------------------------------------|
B|--------------------------------------------------------------------------------|
G|--------------------------------------------------------------------------------|
D|-----7-----7-----7-----4--4-----4--4--------7-----7-----7-----------------------|
A|--------------------------------------------------------------7--7-----7--7-----|
E|--5-----5-----5-----5--------0--------0--9-----9-----9-----9--------7--------7--|

Guitar 2

E|-----5-----5--5--5-----5--5--5-----5--5--5-----5--7--5-----|
B|--7-----7-----------7-----------7-----------7--------------|
G|-----------------------------------------------------------|
D|-----------------------------------------------------------|
A|-----------------------------------------------------------|
E|-----------------------------------------------------------|

SECOND HALF OF THE SECOND VERSE

Guitar 1

E|--------------------------|
B|--------------------------|
G|--------------------------|
D|-----0--7-----------------|
A|--7--0--9--7--7--9--4--5--|
E|--5--0--9--7--5--0--7--5--|

OUTRO

Guitar 1

E|----------------------------------|
B|----------------------------------|
G|----------------------------------|
D|----------------------------------|
A|----------------------------------|
E|--2--2--2--4--4/5--2--2--2--4--0--|

Guitar 2

E|-----------------------------------|
B|--7--7--7--8--8/10--7--7--7--8--7--|
G|-----------------------------------|
D|-----------------------------------|
A|-----------------------------------|
E|-----------------------------------|
Добавлено: 04.11.2013
Другие материалы по этой песне:
  • Аккорды и текст

Страница создана 04.11.2013
http://primanota.ru/wolf-alice/white-leather-chords.htm
Привет, Гость.
Предлагаем пройти революционный курс по гитаре.
Подарок от PrimaNota.Ru, забирай!