PrimaNota.ru - самый крупный в мире бесплатный архив песенных текстов, аккордов, табулатур и нот


Wings - Wings Over America - таба, видео

Регистрация Запомнить меня
Войти через:  Facebook Google Twitter Vk Yandex Mail.ru

Wings - Wings Over America - таба, видео

Печатать
Просмотров: 188
                                 Wings
                              VENUS & MARS
Intro1:

E|------2-------2-------2-------2-------2-------2----|
B|------3-------3-------3-------3-------3-------3----|
G|----2---2---2---2---2---2---2---2---2---2---2---2--|
D|--0-------0-------0-------0-------0----------------|
A|------------------------------------------0--------|
E|---------------------------------------------------|

Intro2:

E|--2-3--/5-2---5-7--/8-7---5-3-2-3--2-0--0--2-0---0----0-2--5-2--|
B|---------------------------------------3-------3----3-----------|
G|----------------------------------------------------------------|
D|----------------------------------------------------------------|
A|----------------------------------------------------------------|
E|----------------------------------------------------------------|


D                            Am
Sitting in the stands of the sports arena,
                        D
Waiting for the show to begin.
                          Am
Red lights, green lights, strawberry wine,
  Em/B                Em7
A good friend of mine follows the stars,
Asus7                      A7
Venus and Mars are alright tonight.

G  A  F  D
G  A  F  D
G  A  F
G  D  A

                                 Wings
                               Rock Show

E|-------------------------------------|
B|-------------------------------------|
G|-----------------2-------------------|
D|-----------2-2-4--------------2---2--|
A|---0-0-3-4------------0-0-3-4---4----|
E|-------------------------------------|

E|-------------------------------------|
B|-------------------------------------|
G|-----------------2-------------------|
D|-----------2-2-4--------------2---2--|
A|---0-0-3-4------------0-0-3-4---4----|
E|-------------------------------------|

E|-------------------------------------|
B|-------------------------------------|
G|-------------------------------------|
D|----------------------0-1-2-3-4------|
A|------------0-1-2-3-4----------------|
E|--0-1-2-3-4--------------------------|


A
What's that man holding in his hand?

He looks a lot like a guy I knew way back when
E7
Its silly willy with philly band
A
Could be ... Oo-ee ...

A
What's that man movin' cross the stage?

It looks a lot like the one used by jimmy page
E7
Its like a relic from a different age
A
Could be ...Oo-ee ...

D
If there's rock show
A7
At the concertgebow
D
They're got long hair
A7
At the madison square
D
You've got rock and roll
A7
At the hollywood bowl,

We'll be there ... Oo yeah ...

D                                           D
The lights go down - they're back in town o.k.
D                                G    G A D
Behind the stacks you glimpse an axe
D                                      D
The tension mounts you score an ounce ole!
E                                               A
Temperatures rise as you see the white of their eyes

E|-------------------------------------|
B|-------------------------------------|
G|-------------------------------------|
D|-----------------------0-1-2-3-4-----|
A|-------------0-1-2-3-4---------------|
E|---0-1-2-3-4-------------------------|

D
If there's rock show
A7
At the concertgebow
D
You're got long hair
A7
At the madison square
D
They've got rock and roll
A7
At the hollywood bowl,

We'll be there ... Oo yeah ...

A
In my green metal suit I'm preparing to shoot up the city
A                                                                A Bb B
And the ring at the end of my nose makes me look rather pretty
B
Its a pity there's nobody here to witness the end
B           A        G          F            E                     D A C G D A A   D A C G D A A
Save for my dear old friend and confidante - madamoiselle kitty

A
What's that man movin' to and fro?

That decibel meter doesn't seem to be reading low.
E7
But they was louder at the rainbow
A
Could be .... Oo-ee ...

D
If there's rock show
A7
At the concertgebow
D
They're got long hair
A7
At the madison square
D
You got rock and roll
A7
At the hollywood bowl,

We'll be there ... Oo yeah ...

D                           A
If there's rock show ...
D                           A
If there's rock show ...
D                           A
If there's rock show ...

                                 Wings
                                  Jet


E|-----------------------------------------|
B|-----------------------------------------|
G|--4---4-6-7-------4---4-6-7----9---------|
D|--4---4-6-7-------4---4-6-7----9---------|
A|--2---2-4-5-------2---2-4-5----7---------|
E|-----------------------------------------|


A                                D/A      A
Jet! I can almost remember their funny faces
That time you told me that
                              D/A   A
You were going to be marrying soon.
    C#m7                 Bm
And Jet, I thought the only
          D6               A
Lonely place was on the moon.
A    A
Jet! Jet!

A                                 D/A        A
Jet! Was your father as bold as a sergeant major?
How come he told you that
                           D/A  A
You were hardly old enough yet?
    C#m7                 Bm
And Jet, I thought the major
        D6           A
Was a lady suffragette.
A    A
Jet! Jet!

Bm                        E
Ah, matter, want Jet to always love me?
Bm                        E
Ah, matter, want Jet to always love me?
Bm          A
Ah, matter, much later. Oh Jet

D A  C G  D A A
D A  C G  D A A


E|-17---14----------------------------------|
B|---------17-14-------------14-------------|
G|---------------16-14-14-16----------------|
D|------------------------------16-16-16-14-|
A|------------------------------------------|
E|------------------------------------------|

E|-/17-17-17-17-14-------------------------------------------------|
B|-----------------17-14-------------14----------------------------|
G|-----------------------16-14-14-16-------------------------------|
D|--------------------------------------16---14h16-14h16-14h16-14--|
A|-----------------------------------------------------------------|
E|-----------------------------------------------------------------|

Cmaj7                Bm
Jet, I thought the major
        D6           A
Was a lady suffragette.
A    A
Jet!Jet!

Bm                        E
Ah, matter, want Jet to always love me?
Bm                        E
Ah, matter, want Jet to always love me?
Bm          A
Ah, matter, much later.

D A  C G  D A A
D A  C G  D A A

A                                    D/A         A
Jet! with the wind in your hair of a thousand laces.
Climb on the back and we'll
                     D/A  A
Go for a ride in the sky.
Cmaj7                Bm
Jet, I thought the major
        D6           A
Was a lady suffragette.
A    A
Jet! Jet!

      Yeah
E|--------------------------|
B|--------------------------|
G|----9---------------------|
D|----9---------------------|
A|----7---------------------|
E|--------------------------|
C#m               Bm
I thought the major
       D6           A
Was a lady suffragette.
A
Jet!

E|-----------------------------------------|
B|-----------------------------------------|
G|--4---4-6-7-------4---4-6-7----9---------|
D|--4---4-6-7-------4---4-6-7----9---------|
A|--2---2-4-5-------2---2-4-5----7---------|
E|-----------------------------------------|


E|-17---14-----------------------|
B|---------17-14-------------14--|
G|---------------16-14-14-16-----|
D|-------------------------------|
A|-------------------------------|
E|-------------------------------|

A  A  D  A~

=======================================================================


                               Wings
                           Let me roll it


Intro:
  A       F#m        A       F#m       E     A       E     A       E
-----------------------------------------------------------------------|
-----------------------------------------------------------------------|
-----------------------------------------------------------------------|
--------2-4---2------------2-4-/6-4--2-------------2--------------2----|
--0--/4--------------0--/4--------------------0--4----------0---4------|
---------------------------------------0--0/4--------0--0/4---------0--|

  E     A       E     A       E
---------------------------------------------------------|
---------------------------------------------------------|
---------------------------------------------------------|
--------------2-------------2----------------------------|
---------0--4----------0--4------------------------------|
--0--0/4--------0--0/4--------0-0-0-0-0-0-2--/12---------|­­­­­­­


Verse:
                      F#m                           E
--2-3-2-0-2--0------------(2)---2-3-2-0-2--0--------------------------|
--2-3-2-0-2--0--2--0------(2)---2-3-2-0-2--0--2--0-----(5)------------|
----------------2--0--------------------------2--0-----(4)------------|
----------------------------------------------------------------------|
----------------------------------------------------------------------|
----------------------------------------------------------------------|


                      F#m                           E
--2-3-2-0-2--0------------(2)---2-3-2-0-2--0--------------------------|
--2-3-2-0-2--0--2--0------(2)---2-3-2-0-2--0--2--0-----(5)------------|
----------------2--0--------------------------2--0-----(4)------------|
----------------------------------------------------------------------|
----------------------------------------------------------------------|
----------------------------------------------------------------------|

E                      F#m
You gave me something, I understand.
E                         F#m
You gave me loving in the palm of my hand

A       F#m             A
I can't tell you how I feel
   F#m               E
my heart is, like a wheel

E       A
Let me roll it
E       A
let me roll it to you
E       A
let me roll it
E       A                E
let me roll it to you

Verse:
                      F#m                           E
--2-3-2-0-2--0------------(2)---2-3-2-0-2--0--------------------------|
--2-3-2-0-2--0--2--0------(2)---2-3-2-0-2--0--2--0-----(5)------------|
----------------2--0--------------------------2--0-----(4)------------|
----------------------------------------------------------------------|
----------------------------------------------------------------------|
----------------------------------------------------------------------|


                      F#m                           E
--2-3-2-0-2--0------------(2)---2-3-2-0-2--0--------------------------|
--2-3-2-0-2--0--2--0------(2)---2-3-2-0-2--0--2--0-----(5)------------|
----------------2--0--------------------------2--0-----(4)------------|
----------------------------------------------------------------------|
----------------------------------------------------------------------|
----------------------------------------------------------------------|

E                       F#m
I want to tell you, and now's the time
E                              F#m
I want to tell you that you're going to be mine

A       F#m             A
I can't tell you how I feel
   F#m              E
my heart is like a wheel.

E       A
Let me roll it
E       A
let me roll it to you
E       A
let me roll it
E       A                 E
let me roll it to you

Verse:
                      F#m                           E
--2-3-2-0-2--0------------(2)---2-3-2-0-2--0--------------------------|
--2-3-2-0-2--0--2--0------(2)---2-3-2-0-2--0--2--0-----(5)------------|
----------------2--0--------------------------2--0-----(4)------------|
----------------------------------------------------------------------|
----------------------------------------------------------------------|
----------------------------------------------------------------------|


                      F#m                           E
--2-3-2-0-2--0------------(2)---2-3-2-0-2--0--------------------------|
--2-3-2-0-2--0--2--0------(2)---2-3-2-0-2--0--2--0-----(5)------------|
----------------2--0--------------------------2--0-----(4)------------|
----------------------------------------------------------------------|
----------------------------------------------------------------------|
----------------------------------------------------------------------|

(Solo)

F#m    E   F#m


A        F#m             A
I cant't tell you how I feel
   F#m              E
my heart is like a wheel

E       A
Let me roll it
E      A
let me roll it to you
E       A
let me roll it
E      A                 E
let me roll it to you

F#m                           E
--2-3-2-0-2--0------------(2)---2-3-2-0-2--0--------------------------|
--2-3-2-0-2--0--2--0------(2)---2-3-2-0-2--0--2--0-----(5)------------|
----------------2--0--------------------------2--0-----(4)------------|
----------------------------------------------------------------------|
----------------------------------------------------------------------|
----------------------------------------------------------------------|

=======================================================================

                                            Wings
                                   Spirits of Ancient Egypt


E|-------------------------0----|
B|-------0-----------------0----|
G|-------0-----------------0----|
D|-------2--------2--------2----|
A|-------2--------2--------2----|
E|--12\--0---12\--0---12\--0----|


E|-------0---------|
B|-------0---------|
G|-------0---------|
D|-------2---------|
A|-------2---------|
E|--12\--0---------|
             You're my baby

A|------------|
E|--12\--0----|
            and I love you

A|-------2---------|
E|--12\--0---------|
       You can take a pound of love

A|--------------|
E|--0/--5-------|
    And cook it in the stew ...

Em                   B7
When you've finished doing that
  A                        Em
I know what you'll want to do
Em
'Cos you're my baby and I love you

Em
I'm your baby -- do you love me?
Em
I can drive a cadillac
A
Across the irish sea
Em                     B7
But when I've finished doing that
  A                       Em
I know where I'll want to be
Em
'Cos I'm your baby, and you love me.

C                  Em
Spirits of ancient egypt
C                  Em
Shadows of ancient rome
C                  C      D
Spirits of ancient egypt
D
Hung on the telly
D
Hung on the telly

D               Em
Hung on the telephone ...

Em
You're my baby, I know you know
Em
You could sell an elevator
A
To geronimo
Em                       B7
And when you've finished doing that
  A                         Em
I know where you'll want to go
Em
'Cos you're my baby, I know you know

C                  Em
Spirits of ancient egypt
C                Em
Echoes of sunken spain
C                  C     D
Spirits of ancient egypt
D
Hung on the 'phone
D
A-hung on the 'phone
D
A-hung on the 'phone
Em
Again

C                  Em        Em
Spirits of ancient egypt,

=======================================================================

                                           Wings
                                       Medicine Jar


[Intro]    Amx4

Amx2                                          Dm                           Amx2
What's Wrong With You? I Wish I Knew, You Say Time And Tell, I Hope That's True
                          Dm                     G
There's More To Life Than Blues And Reds, I Say, I Know How You Feel,
         E           Amx2
Now Your Friends Are Dead.


[Chorus]
Dmx2                                         Ex2
Dead On Your Feet, You Won't Get Far, If You Keep On Sticking Your Hand
                Amx2
In The Medicine Jar.


Amx2                                        Dm                            Amx2
Now Don't Give Up, Whatever You Do, You Say Time Will Tell, I Hope That's True
                   Dm                     G
If You Go Down And Lose Your Head, I Say, I Know How You Feel
         E           Amx2
Now Your Friends Are Dead.


[Chorus]
Dmx2                                         Ex2
Dead On Your Feet, You Won't Get Far, If You Keep On Sticking Your Hand
                Amx2
In The Medicine Jar.
Dmx2                                         Ex2
Dead On Your Feet, You Won't Get Far, If You Keep On Sticking Your Hand
                Amx2
In The Medicine Jar.


[Solo]    Amx2    Dm    Amx2    Dm    G    E    Amx2


Amx2                                   Dm                       Amx2
What Can I Do? I Can't Let Go, You Say Time Will Heal, But Very Slow
                    Dm                     G
So Don't Forget The Things You Said, I Say I Know How You Feel
         E           Amx2
Now Your Friends Are Dead.


[Chorus]
Dmx2                                         Ex2
Dead On Your Feet, You Won't Get Far, If You Keep On Sticking Your Hand
                Amx2
In The Medicine Jar.
Dmx2                                          Ex2                         Pause
Dead On Your Feet, You Won't Get Far, If You Keep On Sticking Your Hand ______
                Am             Dm
In The Medicine Jar, (Medicine Jar),
         Am             Dm
Medicine Jar, (Medicine Jar)
         Am             Dm
Medicine Jar, (Medicine Jar)


=======================================================================

                                  Wings
                             MAYBE I'M AMAZED

		Bb        F                     C               G
		Maybe I'm amazed at the way you love me all the time
		Bb        F                   C        Erun
		Maybe I'm afraid of the way I love you
		Bb        F                       C                G
		Maybe I'm amazed at the way you pulled me out of time
		    Bb           F
		And hung me on a line
		Ab                      G            C
		Maybe I'm amazed at the way I really need you

                Chorus:

		D           Dmaj7                 Ddim7
		Maybe I'm a man and maybe I'm a lonely man

	   	Who's in the middle of something
	   	G                                 Dm7
	   	That he dosen't really understand
	   	D           Dmaj7                      Ddim7
	   	Maybe I'm a man and maybe you're the only woman

	   	Who could ever help me
	  	G                                Dm7
	   	Baby won't you help me understand

                1st Solo

		E----1-3-1-3b-3-1-----0-1----------------------------------|
		B-/3--------------3-1-----3--------------------------------|
		G----------------------------------------------------------|
		D----------------------------------------------------------|
		A----------------------------------------------------------|
		E----------------------------------------------------------|

		E----1-3-1-3b-3-1-----1-0----------------------------------|
		B-/3--------------3-1-----1--------------------------------|
		G----------------------------------------------------------|
		D----------------------------------------------------------|
		A----------------------------------------------------------|
		E----------------------------------------------------------|

		E----1-3-1-3b-3-1-----0-1-0--------------------------------|
		B-/3--------------3-1-------3------------------------------|
		G-----------------------------4\2-0------------------------|
		D----------------------------------------------------------|
		A----------------------------------------------------------|
		E----------------------------------------------------------|

		E----------------------------------------------------------|
		B-3-4-3-1------1----1-2-1----------------------------------|
		G----------0h2------------3--------------------------------|
		D---------------3-----------6p5-3-5------------------------|
		A----------------------------------------------------------|
		E----------------------------------------------------------|

		   Chorus:

		D           Dmaj7                 Ddim7
		Maybe I'm a man and maybe I'm a lonely man

	   	Who's in the middle of something
	   	G                                 Dm7
	   	That he dosen't really understand
	   	D           Dmaj7                      Ddim7
	   	Maybe I'm a man and maybe you're the only woman

	   	Who could ever help me
	  	G                                Dm7
	   	Baby won't you help me understand


		Bb        F                        C               G
		Maybe I'm amazed at the way you're with me all the time
		Bb        F                   C        Erun
		Maybe I'm afraid of the way I leave you
		Bb        F                     C               G
		Maybe I'm amazed at the way you help me sing my song
		    Bb                F
		You right me when I'm wrong
		Ab                      G            C
		Maybe I'm amazed at the way I really need you

                2nd Solo

		E----1-3-1-3b-3-1-----0-1-0--------------------------------|
		B-/3--------------3-1-------3------------------------------|
		G-----------------------------4\2-0------------------------|
		D----------------------------------------------------------|
		A----------------------------------------------------------|
		E----------------------------------------------------------|

		E----1-3-1-3b-3-1-----1-0---1-0---1-0----------------------|
		B-/3--------------3-1-----1-----1-----1-1h3----------------|
		G----------------------------------------------------------|
		D----------------------------------------------------------|
		A----------------------------------------------------------|
		E----------------------------------------------------------|

		E----1-3-1-3b-3-1-----0-1-0--------------------------------|
		B-/3--------------3-1-------3------------------------------|
		G-----------------------------4\2-0------------------------|
		D----------------------------------------------------------|
		A----------------------------------------------------------|
		E----------------------------------------------------------|

		E----------------------------------------------------------|
		B-3-4-3-1----1---0-1-1-2-1---------------------------------|
		G---------/2---------------3--5-3-5brp3--------------------|
		D--------------3------------------------5------------------|
		A-----------------------------------------3-3-3-3-3-3------|
		E----------------------------------------------------------|

   		Chorus:

		D           Dmaj7                 Ddim7
		Maybe I'm a man and maybe I'm a lonely man

	   	Who's in the middle of something
	   	G                                 Dm7
	   	That he dosen't really understand
	   	D           Dmaj7                      Ddim7
	   	Maybe I'm a man and maybe you're the only woman

	   	Who could ever help me
	  	G                                Dm7
	   	Baby won't you help me understand

=======================================================================


                               Wings
                            Lady Madonna (2:37)

Oh!

A    D        A                D
Lady Madonna, children at your feet,
A               D         F    G    A
Wonders how you manage to make ends meet.
A             D     A                D
Who finds the money when you pay the rent,
A                 D         F  G   A
Did you know that money was heaven sent?

Dm                             G7
Friday night arrives without a suitcase,
C                              Am
Sunday morning creeping like a nun.
Dm                                    G7
Monday's child has learned to tie his bootlace,
 C   Bm          E7
(see how they'll run!)

A    D        A            D
Lady Madonna, baby at your breast,
A               D         F    G   A
Wonders how you manage to feed the rest, ooh.

Dm                  G7
Ba ba ba ba ba ba ba ba ba,
C                             Am
Ba ba ba ba ba ba ba ba ba ba ba,
Dm                 G7
Ba ba ba ba ba ba ba ba ba,
C   Bm          E7
See how they'll run!

A    D        A            D
Lady Madonna, lying on the bed,
A             D             F  G    A
Listen to the music playing in your head, ooh-oh-oh..

Dm                         G7
Tuesday afternoon is never ending,
C                               Am
Wednesday morning papers didn't come,
Dm                                   G7
Thursday night your stockings needed mending,
C   Bm          E7
See how they'll run!

A    D        A                D
Lady Madonna, children at your feet,
A               D         F    G    D
Wonders how you manage to make ends meet.

Hey! Hey!
Hey! Hey!

=======================================================================


                                Wings
                    The Long and Winding Road (4:28)

Dm           Am      Bb
The long and winding road,
     F             Bb
That leads to your door,
     F           Dm
Will never disappear,
Gm             C7      F7
I've seen that road before, oh, oh.
Bb    F                Dm
Don't leave me waiting here,
Gm      C7      F
Lead me to your door.

Dm           Am    Bb
The wild and windy night,
         F           Bb
That the rain washed away,
    F              Dm
Has left a pool of tears,
Gm     C7      F7
Crying for the day.
Bb    F               Dm
Don't keep me waiting here,
Gm     C7       F
Let me know the way.

F               Bb
Many times I've been alone,
F                   Gm     C7
And many times I've cried.
F              Bb
Any way you'll never know
F                  Gm     C7
The many ways I've tried

    Dm         Am      Bb
But still they lead me back
             F       Bb
To the long, winding road,
    F                Dm
You left me standing here,
Gm           C7    F
A long, long time ago.
Bb    F                Dm
Don't keep me standing here.
Gm      C7      F
Lead me to your door, uh-uh.


F F_____C C

F F_____Gm7 C

F F_____C C

F F_____Gm7 C

    Dm         Am      Bb
But still they lead me back
             F       Bb
To the long, winding road,
    F                Dm
You left me standing here,
Gm           C7    F
A long, long time ago, oh yeah.
Bb    F               Dm
Don't keep me waiting here (don't keep me waiting)
Gm      C7      F
Lead me to your door.

=======================================================================

                                Wings
                           Live And Let Die


G             Bm             C           D7
When you were young and your heart was an open book
G           Bm               C
You used to say life and let life
              D11               D7               G
(You know you did, you know you did you know you did)
G           Bm                 C                A7
But in this ever changing world in which we live in
          D7      Am  D7      Bb/D
makes you give in and cry

                 G  C/G
Say live and let die
             Gmin   G7
live and let die
             G  C/G
live and let die
             Gmin    Gm
live and let die

C7
What does it matter to ya
G7
when you got a job to do
          D7
you gotta do it well
          Em                    F       Gm
you gotta give the other fellow hell


G             Bm                  D7
When you were young and your heart was an open book
G           Bm               C
You used to say life and let life
              D11               D7               G
(You know you did, you know you did you know you did)
G           Bm                 C                A7
But in this ever changing world in which we live in
          D7      Am  D7      Bb/D
makes you give in and cry


                 G  C/G
Say live and let die
             Gmin   G7
live and let die
             G  C/G
live and let die
             Gmin    Gm
live and let die

=======================================================================

                                                 Wings
                                           Picasso Last Words

G  C G  C G  C G  G   C G

    G         D       F              G
The grand old painter died last night
                         D
his paintings on the wall
  Am
Before he left he bade us well
    D                        G
and said good night to us all
G        Bm
Drink to me
Em                Am7
Drink to my health
    G                D    G    D
You know I can't drink anymore
G        Bm
Drink to me

Em               Am7
Drink to my health
    G                D        C  G
You know I can't drink anymore

Bm                      Em
Three o'clock in the morning
Bm                       Em
I'm getting ready for bed
Am                    G
   It came without a warning
            Bm
But I'll be waiting for you baby
        Am              D
I'll be waiting for you there

G           Bm
So Drink to me
Em               Am7
Drink to my health
    G                D    G    D
you know I can't drink anymore
G        Bm
Drink to me
Em               Am7
Drink to my health
    G                D        C   G
You know I can't drink anymore


=======================================================================


Richard Cory (3:05)

Intro:

G  Ex4  &  Riff
|--------------------------------|
|--------------------------------|
|--------------------------------|
|------------0-0-----------------|
|----------2-----0h2h0-----------|
|--(0)--------------------(0)----|

Em                                  D
They say that Richard Cory owns one half of this whole town,
          Em                        B7
With political connections He spreads his wealth around. He Was
A7
Born into society, a banker's only child,
       Em   D       G         A     B7
He had everything a man could want: Money , Praise , and style.


Em                                  D
The papers print his picture almost everyplace he goes:
         Em                B7
Richard Cory at the opera, Richard Cory at The  shows
        A7
And the rumor of his parties and the orgies on his yacht!
   Em      D       G        A    B
He Really  must be happy         with everything he's got.


G                 Em
But I work in his factory
Am                       Em
And I curse the life I'm living
Am           Em
I curse my poverty
Am                 Em
I wish that I could be,
Am                  Em
I wish that I could be,
Am                      B7
Oh, I wish that I could be,
     Em
John Denver.

Em                              D
He Really gave to The  charity, had the common touch,
              Em                              B7
And they were Thankful for his patronage.. So They   thank You very much,
      A7
So my mind was filled with wonder when the evening headlines read:
 Em      D         G                                                      Em
"Richard Cory went home last night and put a bullet through his head."


G                 Em
But I work in his factory
Am                       Em
And I curse the life I'm living
Am           Em
I curse my poverty
Am                  Em
I wish that I could be,
Am                  Em
I wish that I could be,
Am                      B7
Oh, I wish that I could be,
        Em
Richard Cory.

=======================================================================

                              Wings
                             Bluebird (3:43)

E|--/12-12-12~--12-10-8--8-10-8~--7h8-7--------------|
B|-------------------------------------8-10-10~------|
G|---------------------------------------------------|
D|---------------------------------------------------|
A|---------------------------------------------------|
E|---------------------------------------------------|

E|--/12-12-12-12~--12-10-8--8-10-8~--7h8-7----------7-8-/10-7~--------|
B|-----------------------------------------8-10-10~------------8-10~--|
G|--------------------------------------------------------------------|
D|--------------------------------------------------------------------|
A|--------------------------------------------------------------------|
E|--------------------------------------------------------------------|


Am7
Late at night when the wind is still
          Gm7                 C
I'll come flying through your door,
           Gm7               C
And you'll know what love is for.

C                     F
L'm a bluebird, I'm a bluebird
                      Bb
I'm a bluebird, l'm a bluebird

Yeah ,yeah ,yeah.
F
I'm a bluebird, I'm a bluebird,
      Bb
I'm a bluebird

Yeah, yeah, yeah.

Am7
Touch your lips with a magic kiss
           Gm7           C
And you'll be a bluebird too,
           Gm7                C
And you'll know what love can do.

C                     F
L'm a bluebird, I'm a bluebird
                      Bb
L'm a bluebird, l'm a bluebird

Yeah, yeah, yeah.
F
L'm a bluebird, I'm a bluebird,
      Bb
L'm a bluebird,

Yeah, yeah, yeah.

Dm
Bluebird
A7
Ah ha,
Dm
Bluebird
A7
Ah ha,
Bb        F
Bluebird.

Am7
Fly away through the midnight air
      Gm7             C
As we head across the sea,
       Gm7             C
And at last we will be free.

C                           F
You're a bluebird, you're a bluebird,
                            Bb
You're a bluebird, you're a bluebird

Yeah, yeah, yeah.
F
You're a bluebird, you're a bluebird
         Bb
You're a bluebird

Yeah, yeah ,yeah.

Dm
Bluebird
A7
Ah ha,
Dm
Bluebird
A7
Ah ha,
Bb        F
Bluebird.

Am7
All alone on a desert island
      Gm7           C
We're living in the trees,
          Gm7           C
And we're flying in the breeze.

C                              F
We're the bluebirds, we're the bluebirds
                               Bb       A    D  C  Bb  A
We're the bluebirds, we're the bluebirds

Dm
Bluebird
A7
Ah ha,
Dm
Bluebird
A7
Ah ha,
Bb        F
Bluebird.

=======================================================================

                                 Wings
                        I've Just Seen a Face (2:11)

Oh! Oh! Oh! Oh!

G
I've just seen a face
                                                Em
I can't forget the time or place where we first met.

She's just the girl for me
                                  C
I want all the world to see we've met.
      D        G
Da da da da da da.

G
Had it been another day
                              Em
I might have looked the other way

And I'd have never been aware.
                                C
But as it is, I'll dream of her tonight,
      D        G
Da da da da da da.

D                  C
Falling, yes, I am falling,
              G      C          G
And she keeps calling me back again.
D                  C
Falling, yes, I am falling,
              G      C          G
And she keeps calling me back again.

Oh yeah!


E|------------------------------------|
B|------------------------------------|
G|------------------------------------|
D|------------------------------------|
A|--------0-0-----2-2-----3-3-2-2-0---|
E|--3-3-3-----3-3-----3-3-------------|

E|------------------------------------|
B|------------------------------------|
G|------------------------------------|
D|------------------------------------|
A|--------0-0-----2-2-----3-3-2-2-0---|
E|--3-3-3-----3-3-----3-3-------------|

E|------------------------------------|
B|------------------------------------|
G|------------------------------------|
D|------------------------------------|
A|--3-2-0-----------------------------|
E|--------3-2-3~----------------------|


D                  C
Falling, yes, I am falling,
              G      C          G
And she keeps calling me back again.
D                  C
Falling, yes, I am falling,
              G      C          G
And she keeps calling me back again.

G
I have never known the like of this,
                                  Em
I've been alone and I have missed things

And kept out of sight.
                                      C
For other girls were never quite like this,
      D        G
Da da da da da da.

D                  C
Falling, yes, I am falling,
              G      C          G
And she keeps calling me back again.
D                  C
Falling, yes, I am falling,
              G      C          G
And she keeps calling me back again.


Yeah, ho!

Alright!


- "thank you very much, eh...thank you!"

=======================================================================

                                   Wings
                                 Blackbird (2:27)


G         Am7        G
Blackbird singing in the dead of night
C       A7      D7      B7          Em              Cm
Take these broken wings and learn to fly, mm-mm;
G       A7      Am7              Cm
All your life,
G               A7               Am7    D7   G   C  G  A7  D7  G
You were only waiting for this moment to a rise.

G         Am7        G
Blackbird singing in the dead of night,
C       A7      D7      B7          Em              Cm
Take these sunken eyes and learn to see, mm-mm;
G       A7      Am7              Cm
All your life,
G               A7               Am7     D7   G  C  G  A7  D7  G
You were only waiting for this moment to be free.

F     Em  Dm   C   Bb     C
Black     bird     fly,
F     Em  Dm   C   Bb     C
Black     bird     fly,
A7       D7
Into the light of a dark, black night.

G         Am         G
Blackbird singing in the dead of night,
C       A7      D7      B7          Em              Cm
Take these broken wings and learn to fly, mm-mm;
G       A7      Am7              Cm
All your life,
G               A7               Am7    D7   G   C  G  A7  D7  G
You were only waiting for this moment to a rise.


F     Em  Dm   C   Bb     C
Black     bird     fly,
F     Em  Dm   C   Bb     C
Black     bird     fly,
A7       D7                           G  C  G  A7  D7  G
Into the light of a dark, black night.

G         Am         G
Blackbird singing in the dead of night,
C       A7      D7      B7          Em              Cm
Take these sunken eyes and learn to see, mm-mm;
G       A7      Am7              Cm
All your life,
G               A7               Am7     D7   G  C  G  A7  D7  G
You were only waiting for this moment to be free,
G               A7               Am7     D7   G  C  G  A7  D7  G
You were only waiting for this moment to be free,
G               A7               Am7     D7   G  C  G  A7  D7  G
You were only waiting for this moment to be free.

=======================================================================

                                   Wings
                                 Yesterday (1:49)

G
Yesterday,
F#m    B7                 Em          D
All my troubles seemed so far away,
C      D                       G
Now it looks as though they're here to stay,
    Em  A7       C       G
Oh, I believe in yesterday.

G
Suddenly,
F#m     B7             Em             D
I'm not half the man I used to be,
C         D              G
There's a shadow hanging over me,
    Em    A7       C      G
Oh, yesterday came suddenly.

B   B7
Why she
Em     D          Am        D        G
Had to go I don't know, she wouldn't say.
B B7
I said,
Em        D            Am       D       G
Something wrong, now I long for yesterday.

G
Yesterday,
F#m      B7           Em              D
Love was such an easy game to play,
C     D               G
Now I need a place to hide away,
    Em  A7       C       G
Oh, I believe in yesterday.
Em    A7    C  G
Mm-mm-mm-mm-mm-mm-mm.

=======================================================================


                         Wings
                  You Gave Me the Answer

E               A
You gave me the answer
   D           G
To love eternally.
G      D         A
I love you and - you,
                 E
You seem to like me.

E           A
Wherever we wander
      D         G
The local folk agree,
G      D         A
I love you and - you,
                 E
You seem to like me.

A                            G
Heading back to old familiar places,
C
Places where the cobwebs blow away
                                  D        A
I can forget the airs and graces

E_______________A
D_______________G
G______D________A
________________E

E_______________A
D_______________G
G______D________A
________________E

A___________________________G
C___________________________
____________________________   D   A

E               A
You'll never be crowned by
     D       G
The aristocracy,
G                       D
To their delight, you'd merely invite
        A     G      E
Them in for a cup of tea ...
     G      D         A
And, I love you and - you
A
You seem to like
A
You seem to like
A                      E     A     E
You seem to like, me.


==============================================

                                          Wings
                                 Magneto and Titanium Man


E                              A                    E
Well I was talking last night, Magneto and titanium man ...
E                                                    A
We were talking about you, babe, Oh, Oh, Oh, Oh, Oh, Oh, You were involved in a robbery
         A   A/G#  A/G   A/G#   A  A/G#   A/G     A/G#   E
That was due  to  happen  At a  quarter to three, In the main street.

E                                               A                    E
I didn't believe them (I didn't believe them ), Magneto and titanium man ...
E                                                                      A
But when the crimson dynamo, Finally assured me, well, I knew, Uh, Uh, Uh, You were 
in a robbery
         A   A/G#  A/G   A/G#   A  A/G#   A/G     A/G#   E
That was due  to  happen  At a  quarter to three, In the main street.

E               A                    E
So we went out, Magneto and titanium man ...
E                                                            A
And the crimson dynamo, came along for the ride, Oh, Oh, Oh, Oh, we went to town with the library
       A     A/G# A/G  A/G# A    A/G# A/G     A/G#   E
And we swung all  over that Long tall bank in the main street


B				               E                                       B___________E
Well there she were and to my despair, She's a five-star criminal, Breaking the code
B                                   E                                                    E E  E  E  B   E
Magneto said "now the time come, to gather our forces and run!!! Oh no ... This can't be so ...
E                            B
And then it occurred to me!, you couldn't be bad
E		  B
Magneto was mad!, titanium too!
E               D   A
And the crimson dynamo
E                    D  A
Just couldn't cut it no more
             E
You were the law ...


E               A                    E
*****************************************************
            A
Oh, Oh, Oh, Oh, we went to town with the library
       A     A/G# A/G  A/G# A    A/G# A/G     A/G#   E
And we swung all  over that Long tall bank in the main street


B				               E                                       B___________E
Well there she were and to my despair, She's a five-star criminal, Breaking the code
B                                   E                                                    E E  E  E  B   E
Magneto said "now the time come, to gather our forces and run!!! Oh no ... This can't be so ...
E                            B
And then it occurred to me!, you couldn't be bad
E		  B
Magneto was mad!, titanium too!
E               D   A
And the crimson dynamo
E                    D  A
Just couldn't cut it no more
             E
You were the law ...

=======================================================================


                               Wings
                              Go Now


Intro 1:

	[N.C.]
	We've already said

	Ab       Ab/G       Ab/F       Ab/Eb
	/  /  /    /  /  /    /  /  /    /  /  /
	                    [1: goodbye  2: so long]

	Db        Bbm        Eb [N.C.]
	/  /  /    /  /  /    /

Verse 1:

	(Eb)
        Since you gotta go, oh you had better
	Ab     Ab/G  Ab/F   Ab/Eb
	Go now       go now, go now
	 Db      Bbm  Eb               Em
	(Go now)         Before you'll see me cry
	Fm                                       Cm
	   I don't want you to tell me just what you intend to do now
	Fm
	   'Cause how many times do I have to tell you darlin', darlin'
	                                          Cm
	I'm still in love [3: still in love] with you now
	          Bbm /F /E  Eb [N.C.]
	Whoa-oh-oh-oh

[repeat intro]

Verse 2:

	I don't wanna see you go, oh you had better
	Go now   go now, go now
	(Go now)    Don't you even try
	Tellin' me that you really don't want it to end this way
	'Cause darlin', darlin', can't you see I want you to stay
	Yeah, yeah

[instrumental (piano solo) over verse chords]

[repeat verse 1]

Coda:

	Ab       Ab/G       Ab/F       Ab/Eb
	/  /  /    /  /  /    /  /  /    /  /  /

	         Db                   Eb                 Ab
	I don't wanna see you go but darlin', you better go now

=======================================================================

                                Wings
                               My Love


Bbmaj7
And when I go away
                                                        Am7
I know my heart can stay with my love
               D9
It's understood
                                       Gm7
It's in the hands of my love

       Am7       Bbmaj7    Dm6(B)
And my love does it good
           F                 Gm7
Wo wo-wo wo, wo wo-wo wo,
Bb6                     F
My love does it good

And when the cupboard's bare
l'll still find something there with my love
It's understood
It's everywhere with my love
And my love does it good
Wo wo-wo wo, wo wo-wo wo,
My love does it good

F          Gm7  C7        F          F+
Wo wo I love, oh wo my love
             Bb6                    C7      F         F+
Only my love holds the other key to me
              Bb6   C7     F     A7
Oh my love, oh wo my love
      Bb6                       C7        F
Only my love does it good to me
 F+         Bb6      C7       F
Wo wo-wo wo, wo wo-wo wo,

Don't ever ask me why
I never say goodbye to my love
It's understood
It's everywhere with my love
And my love does it good
Wo wo-wo wo, wo wo-wo wo
My love does it good
Wo wo l love, oh wo my love
Only my love does it good to me


=======================================================================

                                                  Wings
                                       Listen to what the man said


Bm        Cmaj7
Any time, any day,
Bm7                         E7sus4 E
You can hear the people say
Bbm  Am
That love is blind,
      Bm                         Cmaj7       G
Well, I don't know but I say love is kind.

Bm          Cmaj7
Soldier boy kisses girl,
Bm7                           E7sus4 E
Leaves behind a tragic world,
Bbm Am
But he won't mind,
Bm                           Cmaj7       G
He's in love and he says love is fine.

   Am7
Oh, yes indeed we know
That people will find a way to go
   G               Am7      Gmaj7  G7
No matter what the man said.
    C
And love is fine for all we know,
For all we know our love will grow,
G               A         Gmaj7  C
That's what the man said.
C            G                  Am7    Gmaj7
So won't you listen to what the man said.
C         GGGGGGGG
He said.

   Am7
Oh, yes indeed we know
That people will find a way to go
   G               Am7      Gmaj7  G7
No matter what the man said.
    C
And love is fine for all we know,
For all we know our love will grow,
G               A         Gmaj7  C
That's what the man said.
C            G                  Am7    Gmaj7
So won't you Iisten to what the man said.
C        GGGGGGGGG
He said.

    G            G6     Gmaj7   G6
The wonder of it all, baby,
    G            G6     Gamj7   G6
The wonder of it all, baby,
    G            G6     Gmaj7   C6
The wonder of it all, baby,
            G    G6  Gmaj7   G6  G
Yeah, yeah, yeah.


=======================================================================

                                    Wings
                                  Let'em In
E|-------------------------------|
B|--7------------7---------------|
G|----7-9------9---7-------------|
D|--------7--7-------------------|
A|-------------------------------|
E|-------------------------------|­­­­­­­­


Bbmaj7
Someone's knockin' at the door.
Bb6
Somebody's ringin' the bell.
Bbmaj7
Someone's knockin' at the door.
Bb6
Somebody's ririgin' the bell.
F7/Bb
Do me a favor,
Eb/Bb
Open the door and let'em in.

Bbmaj7  Bb6  Bbmaj7  Bb6
F7/Bb  Eb/Bb  Bbmaj7  Bb6

Fm            Bb
Sister Suzie, Brother John,
Fm             Bb
Martin Luther, Phil and Don,
Fm               Bb
Brother Michael, Auntie Gin,
Fm                F
Open the door and let'em in.

Bbmaj7  Bb6  Bbmaj7  Bb6
F7/Bb  Eb/Bb  Bbmaj7  Bb6

Fm            Bb
Sister Suzie, Brother John,
Fm             Bb
Martin Luther, Phil and Don,
Fm               Bb
Brother Michael, Auntie Gin,
Fm                F
Open the door and let'em in.


Bbmaj7
Someone's knockin' at the door.
Bb6
Somebody's ringin' the bell.
Bbmaj7
Someone's knockin' at the door.
Bb6
Somebody's ringin' the bell.
F7/Bb
Do me a favor,
Eb/Bb
Open the door and let'em in.

=======================================================================

                                        Wings
                                    Time to Hide (4:55)

Em           D            Bm             A
If I have to run, I'm not runnin' out on you.
Em           C              D              C
If I have to shake a little sand out of my shoes,
Em                   D               Bm     A
I'm runnin' from the law, or they'll put me inside.

G               A                    C       Em
Baby, won't you let me have a little time to hide.
G               A                    C       Em
Baby, won't you let me have a little time to hide.

Em               D             Bm              A
I've been on the run since the good lord knows when,
Em            C                  D       C
And the day I die, I'll still be runnin' then,
Em               D                 Bm          A
Runnin' from the days when I would lay me down and cry.

G               A                    C       Em
Baby, won't you let me have a little time to hide.
G               A                    C       Em
Baby, won't you let me have a little time to hide.

Fm
Will I love you tomorrow?

Yes, I will; my love,

Oh yes I will, my love.

Will I beg, steal or borrow?

Yes, I will; my love,

Oh yes I will, my love.

G                 A                C       Em
To spend a little time happy to be by your side.
G               A                    C       Em
Baby, won't you let me have a little time to hide.

Em           D            Bm             A
If I have to run, I'm not runnin' out on you.
Em           C              D              C
If I have to shake a little sand out of my shoes,
Em                   D               Bm     A
I'm runnin' from the law, or they'll put me inside.

G               A                    C       Em
Baby, won't you let me have a little time to hide.
G               A                    C       Em
Baby, won't you let me have a little time to hide.

G               A                    C
Baby, won't you let me have a little time,
G               A                    C
Baby, won't you let me have a little time,
G               A                    C       Em
Baby, won't you let me have a little time to hide.

Bass:


[Intro]
G|--------0---0-----------0-------|
D|----------------0---0-----4-0---|
A|--------------------------------|
E|--------------------------------|
  ^       ^       ^       ^


G|--------------------------------|---------------------------------|
D|2-------2-------2-------0---2---|--------2---------------0---2----|
A|----2---------------2-----------|----2---------------2------------|
E|--------------------------------|---------------------------------|
  ^       ^       ^       ^        ^       ^       ^       ^


G|--------------------------------|0---0----------------------------|
D|2-------2---------------0---2---|--------4---4---0---0---4-2-0----|
A|----2---------------2-----------|---------------------------------|
E|--------------------------------|---------------------------------|
  ^       ^       ^       ^        ^       ^       ^       ^


G|--------------------------------|---------------------------------|
D|2-------2---------------0---2---|--------2---------------0---2----|
A|----2---------------2-----------|----2---------------2------------|
E|--------------------------------|---------------------------------|
  ^       ^       ^       ^        ^       ^       ^       ^


G|--------------------------------|---------------------------------|
D|2-----------2-------0-----------|----------------------------2----|
A|------------------------2-------|------------------------2--------|
E|--------------------------------|3---3---0---0---3---3------------|
  ^       ^       ^       ^        ^       ^       ^       ^


G|--------------------------------|---------------------------------|
D|--------2---------------0---2---|--------2---------------0---2----|
A|----2---------------2-----------|----2---------------2------------|
E|--------------------------------|---------------------------------|
  ^       ^       ^       ^        ^       ^       ^       ^


G|--------------------------------|---------------------------------|
D|--------2-----------5\4-0---2---|--------2-------2---0------------|
A|----2---------------------------|----2-------------------2--------|
E|--------------------------------|---------------------------------|
  ^       ^       ^       ^        ^       ^       ^       ^

[0:29]    If   I  have    to   run,                   I'm not
G|--------------------------------|---------------------------------|
D|------------2-----------2-------|0---0---0-----------0------------|
A|--------------------2-----------|-----------------------------4---|
E|0-------------------------------|---------------------------------|
  ^       ^       ^       ^        ^       ^       ^       ^

  running         out on          you
G|--------------------------------|-------/6---6---2---2---0---0----|
D|--------------------------------|---------------------------------|
A|2---2---2-----------2-------1---|0--------------------------------|
E|--------------------------------|---------------------------------|
  ^       ^       ^       ^        ^       ^       ^       ^

         If  I   have    to shake              a little
G|--------------------------------|---------------------------------|
D|2-------2---------------2-------|---------------------------------|
A|----2---------------2-------2---|3-----------3-------2---3--/7----|
E|--------------------------------|---------------------------------|
  ^       ^       ^       ^        ^       ^       ^       ^

  sand    out     of      my      shoes
G|--------------------------------|---------------------------------|
D|--------------------------------|---------------------------------|
A|5---5---5-----------5---5---4---|3---3---3-------3---2---0--------|
E|--------------------------------|----------------------------3----|
  ^       ^       ^       ^        ^       ^       ^       ^

      I'm running from    the  law                    or  they'll
G|--------------------------------|---------------------------------|
D|----2---2-------2---2-----------|0---0---0------------0-----------|
A|--------------2-------------2---|----------------------------4----|
E|0-------------------------------|---------------------------------|
  ^       ^       ^       ^        ^       ^       ^       ^

  put me             in   -  side
G|--------------------------------|---------------------------------|
D|--------------------------------|---------------------------------|
A|2---2---2-------2---2-------1---|0---0---4---4---5---5--/7\-------|
E|--------------------------------|---------------------------------|
  ^       ^       ^       ^        ^       ^       ^       ^

  Baby    won't you let me        have a little   time    to   hide
G|--------------------------------|---------------------------------|
D|----------------0---0-----------|------------------------0---2----|
A|--------2---3---------------0---|------------2---3----------------|
E|3---3---------------------------|---------------------------------|
  ^       ^       ^       ^        ^       ^       ^       ^


G|--------------------------------|---------------------------------|
D|--------2-----------0---1---2---|--------2-----------0------------|
A|----2---------------------------|----2----------------------------|
E|--------------------------------|------------------------7\-------|
  ^       ^       ^       ^        ^       ^       ^       ^

  Baby    won't you let me        have a little   time    to   hide
G|--------------------------------|---------------------------------|
D|----------------0---0-----------|------------------------0---2----|
A|--------2---3---------------0---|------------2---3----------------|
E|3-------------------------------|---------------------------------|
  ^       ^       ^       ^        ^       ^       ^       ^


G|--------------------------------|---------------------------------|
D|--------2-------------------2---|--------2-------2---0------------|
A|----2---------------------------|----2-------------------2--------|
E|--------------------------------|---------------------------------|
  ^       ^       ^       ^        ^       ^       ^       ^

1:14      I've been on the run                        since the good
G|--------------------------------|------------7------9/11-9\-------|
D|------------2-----------2---1---|0--------------------------------|
A|--------------------2-----------|---------------------------------|
E|0-------------------------------|---------------------------------|
  ^       ^       ^       ^        ^       ^       ^       ^

  Lord                knows        when
G|--------------------------------|-------/6---6---2---2---0---0----|
D|--------------------------------|---------------------------------|
A|--------------------------------|---------------------------------|
E|7-----------7-------7---7---6---|5--------------------------------|
  ^       ^       ^       ^        ^       ^       ^       ^

    And the day  I      die                            I'll
G|--------------------------------|---------------------------------|
D|2-------2-----------------------|---------------------------------|
A|----2---------------2-------2---|3-------3-----------2---3--/7----|
E|--------------------------------|---------------------------------|
  ^       ^       ^       ^        ^       ^       ^       ^

  still   be      running     then
G|--------------------------------|---------------------------------|
D|--------------------------------|---------------------------------|
A|5---5---5-----------5-------4---|3---3---3-------3---2---0--------|
E|--------------------------------|----------------------------3----|
  ^       ^       ^       ^        ^       ^       ^       ^

1:32  I'm running from    the      days                 when I would
G|--------------------------------|---------------------------------|
D|--------2-----------2-------2---|0---0---0-----------0-------0----|
A|--------------------------------|---------------------------------|
E|0-------------------------------|---------------------------------|
  ^       ^       ^       ^        ^       ^       ^       ^
  lay     me  down        and      cry
G|--------------------------------|---------------------------------|
D|--------------------------------|---------------------------------|
A|----2---2-----------2---2---1---|0---0---4---4---5---5---7\-------|
E|--------------------------------|---------------------------------|
  ^       ^       ^       ^        ^       ^       ^       ^

  Baby    won't you let me        have a little   time    to   hide
G|--------------------------------|---------------------------------|
D|----------------0---0-----------|------------------------0---2----|
A|--------2---3---------------0---|------------2---3----------------|
E|3-------------------------------|---------------------------------|
  ^       ^       ^       ^        ^       ^       ^       ^


G|--------------------------------|---------------------------------|
D|------------2-2-2---2---0---2---|--------2-----------0------------|
A|--------------------------------|----2----------------------------|
E|--------------------------------|------------------------7\-------|
  ^       ^       ^       ^        ^       ^       ^       ^

  Baby    won't you let me        have a little   time    to   hide
G|--------------------------------|---------------------------------|
D|----------------0---0---0-------|------------------------0---2----|
A|--------2---3---------------0---|------------2---3----------------|
E|3-------------------------------|---------------------------------|
  ^       ^       ^       ^        ^       ^       ^       ^


G|--------------------------------|---------------------------------|
D|--------2-------------------2---|--------2------------------------|
A|----2---------------2---2-------|----2---------------5------------|
E|--------------------------------|------------------------7\-------|
  ^       ^       ^       ^        ^       ^       ^       ^

1:59
G|--------------------------------|---------------------------------|
D|--------------------------------|---------------------------------|
A|3---3---3---3-------2---3---3---|3---3---1---1--------------------|
E|--------------------------------|----------------4---4---3---3----|
  ^       ^       ^       ^        ^       ^       ^       ^

    Will  I love you to -    morrow              yes I   will
G|--------------------------------|---------------------------------|
D|--------3-------3---3---1h2h3---|--------3-----3-3----------------|
A|--------------3-----------------|--------------------3---3--------|
E|1---1---------------------------|----------------------------3----|
  ^       ^       ^       ^        ^       ^       ^       ^

                      yes I   will
G|--------------------------------|---------------------------------|
D|--------------------------------|---------------------------------|
A|--------------------3---3-------|---------------------------------|
E|--------3-----3-3-----------3---|--------3---3-------3---3---3----|
  ^       ^       ^       ^        ^       ^       ^       ^

          Will I  beg steal or     borrow              yes I   will
G|--------------------------------|---------------------------------|
D|3-------3-----------3-------1h2h|3-------3-----3-3----------------|
A|--------------------------------|--------------------3---3--------|
E|--------------------------------|----------------------------3----|
  ^       ^       ^       ^        ^       ^       ^       ^

    yes I   will
G|--------------------------------|---------------------------------|
D|--------------------------------|---------------------------------|
A|--------------------3---3-------|---------------------------------|
E|--------3---3---------------3---|--------3-------3---3---1---2----|
  ^       ^       ^       ^        ^       ^       ^       ^

Just spend a little time,     help    me   to  be  by     your side
G|--------------------------------|---------------------------------|
D|----------------0---0---0-------|------------------------0---2----|
A|--------2---3---------------0---|------------2---3---3------------|
E|3---3---------------------------|---------------------------------|
  ^       ^       ^       ^        ^       ^       ^       ^


G|--------------------------------|---------------------------------|
D|--------2---------------0---2---|--------2-------0---0------------|
A|----2---------------2-----------|----2-------------------2---2----|
E|--------------------------------|---------------------------------|
  ^       ^       ^       ^        ^       ^       ^       ^

  Baby    won't you let me        have a little   time    to   hide
G|--------------------------------|---------------------------------|
D|----------------0---0---0-------|------------------------0---2----|
A|--------2---3---------------0---|------------2---3---3------------|
E|3-------------------------------|---------------------------------|
  ^       ^       ^       ^        ^       ^       ^       ^


G|--------------------0-----------|---------------------------------|
D|--------2-------2-------2-------|---------------------------------|
A|----2---------------------------|----------------2---0------------|
E|--------------------------------|------------------------3--------|
  ^       ^       ^       ^        ^       ^       ^       ^

[mouth organ solo] [2:38]
G|--------------------------------|---------------------------------|
D|--------2-------2---2-------2---|0---0---0------------------------|
A|--------------2-----------------|--------------------5\-----------|
E|0-------------------------------|---------------------------------|
  ^       ^       ^       ^        ^       ^       ^       ^


G|--------------------------------|-------/6---6---2---2---0---0----|
D|--------------------------------|---------------------------------|
A|2---2---2---2---2---2---2---1---|0--------------------------------|
E|--------------------------------|---------------------------------|
  ^       ^       ^       ^        ^       ^       ^       ^


G|--------------------------------|---------------------------------|
D|2-------2---------------2-------|---------------------------------|
A|----2---------------2-------2---|3---3---3-----------2---3--/7----|
E|--------------------------------|---------------------------------|
  ^       ^       ^       ^        ^       ^       ^       ^


G|--------------------------------|---------------------------------|
D|--------------------------------|---------------------------------|
A|5---5---5---5-------5---5---4---|3-----------3---3---2---0--------|
E|--------------------------------|----------------------------3----|
  ^       ^       ^       ^        ^       ^       ^       ^

[guitar solo]
G|--------9-----------------------|---------------------------------|
D|--------------------------------|---------------------------------|
A|------------7-------7---7---6---|5---5---5-------5---5---5---5----|
E|0-------------------------------|---------------------------------|
  ^       ^       ^       ^        ^       ^       ^       ^


G|--------------------------------|---------------------------------|
D|--------------------------------|----------------0---0---2--------|
A|2-------2---2-------2---2---1---|0---0---4---4---------------0----|
E|--------------------------------|---------------------------------|
  ^       ^       ^       ^        ^       ^       ^       ^


G|--------------------------------|---------------------------------|
D|----------------0---0-----------|------------------------0---2----|
A|--------2---3---------------0---|------------2---3----------------|
E|3-------------------------------|---------------------------------|
  ^       ^       ^       ^        ^       ^       ^       ^


G|--------------------------------|---------------------------------|
D|--------2-------2---2---0---2---|--------2-------2---0------------|
A|----2---------------------------|----2-------------------2---0----|
E|--------------------------------|---------------------------------|
  ^       ^       ^       ^        ^       ^       ^       ^

  Baby    won't you let me        have a little   time    to   hide
G|--------------------------------|---------------------------------|
D|----------------0---0---0-------|------------------------0---2----|
A|--------2---3---------------0---|------------2---3----------------|
E|3-------------------------------|---------------------------------|
  ^       ^       ^       ^        ^       ^       ^       ^


G|--------------------------------|---------------------------------|
D|--------2-------------------2---|2---0-----------2---0------------|
A|----2---------------2---2-------|--------2---------------2--------|
E|--------------------------------|---------------------------------|
  ^       ^       ^       ^        ^       ^       ^       ^

[3:23]    If   I  have    to   run,                   I'm not
G|--------------------------------|---------------------------------|
D|--------------------------------|------------7\-------------------|
A|------------7-------------------|5--------------------------------|
E|0-------------------------------|---------------------------------|
  ^       ^       ^       ^        ^       ^       ^       ^


G|------------4p2h4---------------|-------/6---6---2---2---0---0----|
D|--------------------------------|---------------------------------|
A|2-------------------------------|0--------------------------------|
E|--------------------------------|---------------------------------|
  ^       ^       ^       ^        ^       ^       ^       ^

  If  I   have    to shake              a little
G|--------------------------------|---------------------------------|
D|2-------2---------------2-------|---------------------------------|
A|----------------------------2---|3-----------3-------2---3--/7----|
E|--------------------------------|---------------------------------|
  ^       ^       ^       ^        ^       ^       ^       ^

  sand    out     of      my      shoes
G|--------------------------------|---------------------------------|
D|--------------------------------|---------------------------------|
A|5-------------------5---5---4---|3---3---3-------3---2---0--------|
E|--------------------------------|----------------------------3----|
  ^       ^       ^       ^        ^       ^       ^       ^

     I'm  running from    the law                      or  they'll
G|--------------------------------|---------------------------------|
D|--------2-------2---2-------2---|0---0---0-----------0---0---0----|
A|--------------2-----------------|---------------------------------|
E|0-------------------------------|---------------------------------|
  ^       ^       ^       ^        ^       ^       ^       ^

  put me             inside
G|--------------------------------|---------------------------------|
D|--------------------------------|---------------------------------|
A|2---2---2---2-------2---2---1---|0---0---4---4---5---5---7\-------|
E|--------------------------------|---------------------------------|
  ^       ^       ^       ^        ^       ^       ^       ^

  Baby    won't you let me        have a little   time    to   hide
G|--------------------------------|---------------------------------|
D|----------------0---0-----------|------------------------0---2----|
A|--------2---3---------------0---|------------2---3----------------|
E|3---3---------------------------|---------------------------------|
  ^       ^       ^       ^        ^       ^       ^       ^


G|--------------------------------|---------------------------------|
D|--------2-------2---2---0---1---|2-------2-------0---2---0--------|
A|----2---------2-----------------|----2------------------------2---|
E|--------------------------------|---------------------------------|
  ^       ^       ^       ^        ^       ^       ^       ^

  Baby    won't you let me        have a little   time    to   hide
G|--------------------------------|---------------------------------|
D|----------------0---0-----------|------------------------0---2----|
A|--------2---3---------------0---|------------2---3----------------|
E|3---3---------------------------|---------------------------------|
  ^       ^       ^       ^        ^       ^       ^       ^


G|--------------------------------|---------------------------------|
D|--------2-------2---2---0---2---|--------2-----------2---0--------|
A|----2---------2-----------------|----2-----------------------2----|
E|--------------------------------|---------------------------------|
  ^       ^       ^       ^        ^       ^       ^       ^

  Baby    won't you let me    have a little   time
G|--------------------------------|---------------------------------|
D|----------------0---0-----------|---------------------------------|
A|--------2---3---------------0---|---------------------------------|
E|3-------------------------------|---------------------------------|
  ^       ^       ^       ^        ^       ^       ^       ^

  Baby    won't you let me    have a little   time
G|--------------------------------|---------------------------------|
D|----------------0---0-----------|---------------------------------|
A|--------2---3---------------0---|-----------------------/7--------|
E|3-------------------------------|---------------------------------|
  ^       ^       ^       ^        ^       ^       ^       ^

  Baby    won't you let me    have a little   time
G|--------------------------------|-----------------------/9--------|
D|----------------0---0-----------|---------------------------------|
A|--------2---3---------------0---|---------------------------------|
E|3---3---------------------------|---------------------------------|
  ^       ^       ^       ^        ^       ^       ^       ^

                          to   hide
G/6-------------------------------|---------------------------------|
D|--------------------------------|----------------2---0------------|
A|----------------0---------------|------------------------2--------|
E|--------------------------------|--------0------------------------|
  ^       ^       ^       ^        ^       ^       ^       ^


G|--------------------------------|---------------------------------|
D|--------------------------------|---------------------------------|
A|----------------2---0-----------|---------------------------------|
E|------------------------3-------|0--------------------------------|
  ^       ^       ^       ^        ^       ^       ^       ^

=======================================================================


                                  Wings
                             Silly Love Songs


Intro
G|---------------------------------------------|
D|---------------------------------------------|
A|-3-3-------------------------------10\-------|
E|----5-5-3-3-5-3-0-0-0-3-5-3-1--1-1-----------|


C                                  Em7
You'd think that people would have had enough
          Fmaj7
Of silly love songs
C                          Em7          Fmaj7
But I look around me and I see it isn't so
C                           Em7              Fmaj7
Some people wanna fill the world with silly love songs
            Em7
And what's wrong with that
     Fmaj7
I'd like to know
        Em        G
'Cause here I go again

C  Em7 Fmaj7 C  Em7 Fmaj7
I love you,  I love you
C  Em7 Fmaj7 C  Em7 Fmaj7
I love you,  I love you

C           Em7                Fmaj7
I can't explain the feeling's plain to me
                     C
Now can't you see
                 Em7              Fmaj7
Ah, she gave me more, she gave it all to me
Now, can't you see
        Em7
What's wrong with that
   Fmaj7
I need to know
        Em        G
'Cause here I go again

I love you, I love you
I love you, I love you

Em7                       Am
Love doesn't come in a minute
Dm7                           C
Sometimes it doesn't come it all
Em7                        Am
I only know that when I'm in it
Dm7            C Dm7                   C/A Dm7
It isn't silly,     no, it isn't silly
                     Dm7/G
Love isn't silly at all

C   Em7        Fmaj7               G
How can I tell you about my loved one
C   Em7        Fmaj7               G
How can I tell you about my loved one
(I love you)
How can I tell you about my loved one
(I love you)
How can I tell you about my loved one

I love you, I love you
I love you, I love you

I can't explain the feeling's plain to me
Say, can't you see
(I love you)
Ah, he gave me more, he gave it all to me
Say, can't you see
(I love you)

I can't explain the feeling's plain to me
Say, can't you see
(How can I tell you about my loved one)
(I love you)
Ah, he gave me more, he gave it all to me
Say, can't you see
(How can I tell you about my loved one)
(I love you)

I can't explain the feeling's plain to me
Say, can't you see
(How can I tell you about my loved one)
(I love you)
Ah, he gave me more, he gave it all to me
Say, can't you see
(How can I tell you about my loved one)
(I love you)

You'd think that people would have had enough
Of silly love songs
But I look around me and I see it isn't so, oh no
Some people wanna fill the world with silly love songs
             Em7 {tacet}
And what's wrong with that

=======================================================================

                                             Wings
                                         Beware my love

Bb          Dm/A            A/G
 Oh, oh, oh,     no, no, no.
   F
I must be wrong, baby, yeah.
Bb                  Dm/A
 But I don't believe     that he's the one,
A/G                             F
 but if you insist, I must be wrong, I must be wrong.
Bb               Dm/A
 I have to leave,     and when I'm gone,
A/G                           F
 I'll leave my message in my song, that's right.

Dm               C
 Beware, my love,  he'll bowl you over.
Bb                   A
 Beware, my love, before you're much older,
Dm                  C
 He'll sweep you up  under his carpet.
Bb                    A
 You'd be in luck if you could stop it. Come on now.

Inter 1:[Bb  Dm/A  A/G  F] x2

Well, he'll wear you out, and in a miniute,
You'll hear a shout, and then you'll be in it.
So, so beware my love, 'cause he'll take you under.
Beware, my love, the sound of his thunder.
I don't believe that he's the one,
But if you insist, I must be wrong, I must be wrong,
I have to leave,  and when I'm gone,
I'll leave my message in my song, that's where I'm gonna leave it.

Beware, my love, you know he'll bowl you over.
Beware, my love,  before you're much older,
Well, he'll wear you out,  and in a miniute,
You'll hear a shout, and then you'll be in it.

E|----------------------------------|
B|----------------------------------|
G|----------------------------------|
D|---6--4---------------------------|
A|--------6--4--6----4--2-----------|
E|------------------------4--2--4---|


A              Bb           C
Can't say I've found out, I tell you to
Dm                          G
beware, my love, beware, my love.
Beware, my love, beware, my love.
Beware, my love, beware, my love.
Beware, my love, beware, my love.
Beware, my love, beware, my love.
Beware, my love, beware, my love.
Beware, my love, beware, my love.


=======================================================================


                                   Wings
                                 LETTING GO

Intro:

E|-------------------------------|
B|--5------5-----5-5-------------|
G|--5------5-----5-5--7-/9-7-----|    x2
D|-----7------7------------------|
A|-------------------------------|
E|-------------------------------|

E|----------------------------------|
B|----------------------------------|
G|---7-/9-7-5-7-5---5-7-/9-7-5-7-5--|   x2
D|----------------------------------|
A|----------------------------------|
E|----------------------------------|

E|-------------------------------|
B|--5----------------------------|
G|--5----5--5---7-/9-7-----------|   x2
D|----7--------------------------|
A|-------------------------------|
E|-------------------------------|

E|------------------------------------------------------|
B|------------------------------------------------------|
G|---------5--7--/9--5--/9--7---10--8--10----10--8--5~--|
D|---(7)~-----------------------------------------------|
A|------------------------------------------------------|
E|------------------------------------------------------|


Am
Ah she tastes the wine.
Dsus               D
Such a human being so divine.
Am
Oh, she feels like sun,
Dsus               D
Mother Nature look what you've done

Dm7                      Am
Oh,  I feel like letting go.
Dm7                     Am   C D
Oh, I feel like letting go.

Am
Ah, she looks like snow,
Dsus                  D
I want to put her in a Broadway show
Am
Ah, she'll dance and dine,
Dsus                  D
Like a Lucifer she'll always shine

Riff 1 x2
E|------------------------------------------------------------------|
E|------------------------------------------------------------------|
E|------------------------------------------------------------------|
E|------------------------------------------------------------------|
E|----3--5--/7--5--3--5--/7--(7)~------3--5--/7--5--3--5--/7--------|
E|--5--------------------------------5------------------------(8)~--|


Solo:

Am____________________

Dsus_______________D_________

Am____________________

Dsus_______________D_________


Dm7                     Am
Oh, I feel like letting go.
Dm7                     Am
Oh, I feel like letting go.

  Bm

Cm
Ah, she sings it so,
Fsus                     F
I want to put her on the radio.
Cm
One day, and there you are,
Fsus                    F
Ladies and gentlemen, a brand new star

Fm7                     Cm
Oh, I feel like letting go.
Fm7                     Cm
Oh, I feel like letting go.

N.C  Fm7   Cm  Fm7  Cm


=======================================================================


                                             Wings
                                        Band On The Run

E|--10h12-10-------------2---2-2-------------------------10h12-10-------|
B|------------10h12-10---2---2-2---10h12-10h12-10h12-10-----------12----|
G|-----------------------2---2-2----------------------------------------|
D|-----------------------0---0-0----------------------------------------|
A|----------------------------------------------------------------------|
E|----------------------------------------------------------------------|

E|-------------------------10h12-10-----------2---2-2-----------------------|
B|--10h12-10h12-10h12-10-----------10h12-10---2---2-2---1012-1012-1012-10---|
G|--------------------------------------------2---2-2-----------------------|
D|--------------------------------------------0---0-0-----------------------|
A|--------------------------------------------------------------------------|
E|--------------------------------------------------------------------------|

E|--10h12-10---------------------------15-14-12-10--10-11--/15---|
B|----------12--10h12-10h12-10h12-10---15-14-12-10--10-11--/15---|
G|---------------------------------------------------------------|
D|---------------------------------------------------------------|
A|---------------------------------------------------------------|
E|---------------------------------------------------------------|

E|--15-14-12-10--10-11--/15--14h15-14---|
B|--15-14-12-10--10-11--/15-------------|
G|--------------------------------------|
D|--------------------------------------|
A|--------------------------------------|
E|--------------------------------------|

Dmaj7                         D*
Stuck inside these four walls,
G6                   G
Sent inside forever,
Dmaj7                D*
Never seeing no one
G6         G
Nice again
     Dmaj7  Gmaj7  Dmaj7  Gmaj7  Dmaj7  Gmaj7
Like you    Mama   you    Mama   you.

E|---------------------------------------------------------------------|
B|---------------------------------------------------------------------|
G|-----5-5-5--4-4--2-2~---7-7-7-7-7-7-4-4--4--5-5-5--4-4-4-2-2~--------|
D|----------------------0----------------------------------------------|
A|--0----------------------------------------------------------------0-|
E|---------------------------------------------------------------0-3---|

E|---------------------------------------------------------------------|
B|---------------------------------------------------------------------|
G|-----5-5-5--4-4--2-2~---7-7-7-7-7-7-4-4--4--5-5-5--4-4-4-2-2~--------|
D|----------------------0----------------------------------------------|
A|--0----------------------------------------------------------------0-|
E|---------------------------------------------------------------0-3---|

Am
If I ever get out of here,
D                        D6
Thought of giving it all  away
Am
To a registered charity.
D                    D6
All I need is a pint  a day
     Am
If I ever get out of here.
     Am
If I ever get out of here.

E|--------------------------------------------------------------|
B|--------------------------------------------------------------|
G|--------------------7--7-7--5~--------------------7--7-7--5~--|
D|-----------------5--7--7-7--5~-----------------5--7--7-7--5~--|
A|--------3--5--7-----5--5-5--3~--------3--5--7-----5--5-5--3~--|
E|---3--5--------------------------3--5-------------------------|

E|----------------0--0--0--0---1--1--1--1---0--0--0--0---1--1--1--1---|
B|----------------1--1--1--1---1--1--1--1---1--1--1--1---1--1--1--1---|
G|----------------0--0--0--0---0--0--0--0---0--0--0--0---0--0--0--0---|
D|----------------2--2--2--2---2--2--2--2---2--2--2--2---2--2--2--2---|
A|--------3-------3--3--3--3----------------3--3--3--3----------------|
E|---3--5----3--5-----------------------------------------------------|

          C                    Fmaj7
Well, the rain exploded with a mighty crash
                      C
As we fell into the sun,
        C                     Fmaj7
And the first one said to the second one there
                      Em
I hope you're having fun.
G           C    Em   C      Am
Band on the run, band on the run.
        Fmaj7          C
And the jailer man and sailor Sam
     Fmaj7     Fmaj7 Fmaj7
Were searching every one
[N.C.]  C     Fmaj7     C  Fmaj7  C     Fmaj7     C  Fmaj7
For the band on the run,          band on the run
C     Fmaj7     C  Fmaj7  C     Fmaj7     C  Fmaj7
band on the run,          band on the run


          C                 Fmaj7
Well, the undertaker drew a heavy sigh
                            C
Seeing no one else had come,
      C                       Fmaj7
And a bell was ringing in the village square
                         Em
For the rabbits on the run.

G           C    Em   C      Am
Band on the run, band on the run.
        Fmaj7          C
And the jailer man and sailor Sam
     Fmaj7     Fmaj7 Fmaj7
Were searching every one
[N.C.]  C     Fmaj7     C  Fmaj7  C     Fmaj7     C  Fmaj7
For the band on the run,          band on the run

Em  G  C   C  Em  Am   G G G G   Fmaj7 Fmaj7 Fmaj7

[N.C.]  C     Fmaj7     C  Fmaj7  C     Fmaj7     C  Fmaj7
For the band on the run,          band on the run

          C                        Fmaj7
Well, the night was falling as the desert world
                   C
Began to settle down.
       C                             Fmaj7
In the town they're searching for us every where
                       Em
But we never will be found.

G           C    Em   C      Am
Band on the run, band on the run.
        Fmaj7            C
And the county judge who held a grudge
     Fmaj7      Fmaj7  Fmaj7
Will search for ever   more

[N.C.]  C     Fmaj7     C  Fmaj7  C     Fmaj7     C  Fmaj7
For the band on the run,          band on the run
C     Fmaj7     C  Fmaj7  C     Fmaj7     C  Fmaj7
band on the run,          band on the run

Em  G  C


CHORDS:
Am    x02210
C     x32010
D     xx0232
Dmaj7 xx0222
D*    xx0220 <-- Don't know the name for this chord
D6    xx0202
G     320003
G6    320000
Gmaj7 320002
Fmaj7 xx3210
Em    022000

=======================================================================

                                         Wings
                                      Hi, Hi, Hi

             E
Well, when I met you at the station
                                         A
You were standing with a bootleg in your hand
       E
I took you back to my little place
                      A
For a taste of a multicoloured band
                D                     A
We're gonna get hi hi hi,The night is young.
          E
She'll be my funky little mama,
                             A
Gonna rock it and we've only just begun.

                D                       A
We're gonna get hi hi hi,With the music on.
              E
Won't say bye-bye bye-bye bye-bye bye-bye
                 A
Til the night is gone.
          D
I'm gonna do it to you, gonna do it,
                                A
Sweet banana, you'll never give up.
              D                      A          E
We're gettin' hi hi hi in the midday sun.

E  A  E  E

           E
Well well, take off your face,
                             A
Recover from the trip you've been on.
          A
I want to lie on the bed,
                     A
Get you ready for my polygon.

          D
I'm gonna do it to you, gonna do it,
                                A
Sweet banana, you've never been done.
          E
Yes, I go like a rabbit, gonna grab it,
                              A
Gonna do it 'til the night is done.
                D                       A
We're gonna get hi hi hi with the music on.
              E
Won't say bye-bye bye-bye bye-bye bye-bye
                  A
'Til the night is gone.

          D
I'm gonna do it to you, gonna do it,
                                A
Sweet banana, you'll never give up.
                D                         D#
We're gonna get hi hi hi, we're gonna get hi hi hi,
                D                      A       E
We're gonna get hi hi hi in the midday sun.

E  A  E  A

D                         D#
We're gonna get hi hi hi, we're gonna get hi hi hi,
                D
We're gonna get hi hi hi in the midday sun.

=======================================================================


                                  Soily

Riff 1:

E|---------------------|--------------------------------|
B|---------------------|--------------------------------|
G|---------------------|--------------------------------|
D|---------------------|--------------------------------|
A|---------------------|--------------------------------|
E|--5-5--/12~--5-5--0--|--5-5--0--/12~--5-5--0--5--0----|

Riff 2

G|----------------------------------------|
D|----------------------------------------|
A|------5--7-7------5--7-7------5--7-7----|
E|---7-----------7-----------7—-----------|

Riff 3

E|-----------------------------------------------------|
B|-----------------------------------------------------|
G|-------2---------------------------------------------|
D|---2---2---2---5---7----2---2------------------------|
A|---2---0---2---5---7----2---2------------------------|
E|---0-------0---3---5----0---0------------------------|

E
uh yea...

uh yea...

uh yea...

uh yea...

uh yea...
                 Riff 3
uh ooh yea...

Riff 2
E
People gathered here tonight,
                               Riff 3
I want you to listen to me!
Riff 2
E
To your left and to you right,
                                       Riff 3
You've got some pretty soily company.

Riff 2
E
Reader, writer, farmer, priest,

Breed controler, born deceased.

Indian, lawyer, doctor, dog,
      E
And a plumber with a fattened hog.

D        A
Soily,   soily,
    C                               E
The cat in satin trousers said it's oily.
D        A
Soily,   soily,
    C                               E
The cat in satin trousers said it's oily.
                     Riff 2
You know he's right.

Riff 2
E
Romans, italians, country men,
                               Riff 3
I want you to listen to me!
Riff 2
E
I've said it twice and I'll say it again,
                                       Riff 3
We've got some pretty soily company.

Riff 2
E
Liar, cheater, jungle chief,

Saint, believer on relief.

Action painter, hitler's son,
      E
And a commie with a Tommy gun.


D        A
Soily,   soily,
    C                               E
The cat in satin trousers said it's oily.
D        A
Soily,   soily,
    C                               E
The cat in satin trousers said it's oily.
                     Riff 2
You know he's right.

Riff 2
E
Romans, italians, country men,
                               Riff 3
I want you to listen to me!
Riff 2
E
I've said it twice and I'll say it again,
                                       Riff 3
We've got some pretty soily company.

Riff 2
E
Reader, writer, farmer, priest,

Breed controler, born deceased.

Indian, lawyer, doctor, dog,
      E
And a plumber with a fattened hog.

D        A
Soily,   soily,
    C                               E
The cat in satin trousers said it's oily.
D        A
Soily,   soily,
    C                               E
The cat in satin trousers said it's oily.
D        A
Soily,   soily,
    C                               E
The cat in satin trousers said it's oily.
D        A
Soily,   soily,
    C                               E
The cat in satin trousers said it's oily.
D        A
Soily

E|-----------------------------------------------------|
B|-----------------------------------------------------|
G|-----------------------------------------------------|
D|-----------------------------------------------------|
A|----3---1-----------/5---3-------3---1---------------|
E|-----------3---1------------5-----------3---1---0----|


Lea_1705@Hotmail.com  (Tank You)
Добавлено: 14.10.2013
Другие материалы по этой песне:
  • Аккорды и текст

Страница создана 14.10.2013
http://primanota.ru/wings/wings-over-america-chords.htm
Привет, Гость.
Предлагаем пройти революционный курс по гитаре.
Подарок от PrimaNota.Ru, забирай!