PrimaNota.ru - самый крупный в мире бесплатный архив песенных текстов, аккордов, табулатур и нот


Wings - Helen Wheels - бас-таба, видео

Регистрация Запомнить меня
Войти через:  Facebook Google Twitter Vk Yandex Mail.ru

Wings - Helen Wheels - бас-таба, видео

Печатать
Просмотров: 118
Авторы: Linda McCartney, Paul McCartney

-----------------------------------------------------------------
Helen Wheels - Paul McCartney & Wings
-----------------------------------------------------------------
FROM BAND ON THE RUN

Tabbed By: truti
e-mail: etoilebr@gmail.com

Tuning: EADG

Intro: (0:00)

G|----------------------0----------|---------------------------------|
D|---------------------------------|---------------------------------|
A|-------0-------------------------|---------------------------------|
E|---------------------------------|---------------------------------|

Verse: (0:12)

G|--------------------------------2|--------------------------------2|
D|------------------2-------4------|------------------2-------4------|
A|--0--------4---------------------|--0--------4---------------------|
E|---------------------------------|---------------------------------|

G|--------------------------------2|--------------------------------2|
D|------------------2-------4------|-----------4-------2-------------|
A|--0--------4---------------------|---------------------------4-----|
E|---------------------------------|---------------------------------|

G|---------------------------------|---------------------------------|
D|------------------2-------4-----2|------------------2-------4-----2|
A|--0--------4---------------------|--0--------4---------------------|
E|---------------------------------|---------------------------------|

G|--------------------------------2|---------------------------------|
D|------------------2-------4------|-----------4-------2------------2|
A|--0--------4---------------------|---------------------------4-----|
E|---------------------------------|---------------------------------|

G|---------------------------------|---------------------------------|
D|------------------2-------4-----2|------------------2-------4-----2|
A|--0--------4---------------------|--0--------4---------------------|
E|---------------------------------|---------------------------------|

G|--------------------------------2|---------------------------------|
D|------------------2-------4------|-----------4-------2------------2|
A|--0--------4---------------------|---------------------------4-----|
E|---------------------------------|---------------------------------|

G|---------------------------------|---------------------------------|
D|------------------2-------4-----2|------------------2-------4-----2|
A|--0--------4---------------------|--0--------4---------------------|
E|---------------------------------|---------------------------------|

G|--------------------------------2|---------------------------------|
D|------------------2-------4------|-----------4-------2------------2|
A|--0--------4---------------------|---------------------------4-----|
E|---------------------------------|---------------------------------|

Chorus: (0:38)

G|--------------------------------2|---------------------------------|
D|------------------2-------4------|-----------4-------2------------2|
A|--0--------4---------------------|---------------------------4-----|
E|---------------------------------|---------------------------------|

G|--------------------------------2|---------------------------------|
D|------------------2-------4------|-----------4-------2------------2|
A|--0--------4---------------------|---------------------------4-----|
E|---------------------------------|---------------------------------|

G|--------------------------------2|---------------------------------|
D|------------------2-------4------|-----------4-------2------------2|
A|--0--------4---------------------|---------------------------4-----|
E|---------------------------------|---------------------------------|

G|--------------------------------2|---------------------------------|
D|------------------2-------4------|-----------4-------2------------2|
A|--0--------4---------------------|---------------------------4-----|
E|---------------------------------|---------------------------------|

G|--------------------------------2|---------------------------------|
D|------------------2-------4------|-----------4-------2------------2|
A|--0--------4---------------------|---------------------------4-----|
E|---------------------------------|---------------------------------|

G|--------------------------------2|---------------------------------|
D|------------------2-------4------|-----------4-------2-------------|
A|--0--------4---------------------|---------------------------4-----|
E|---------------------------------|--------------------------------0|

G|---------------------------------|-----------0---------------------|
D|---------------------------------|---------------------------------|
A|------------------------0--------|---------------------------------|
E|---------------------------------|---------------------------------|

G|---------------------------------|--------------------------------2|
D|---------------------------------|-------------------2-------4-----|
A|---------------------------------|--0--------4---------------------|
E|---------------------------------|---------------------------------|

Verso (1:09)

G|---------------------------------|---------------------------------|
D|------------------2-------4-----2|------------------2-------4-----2|
A|--0--------4---------------------|--0--------4---------------------|
E|---------------------------------|---------------------------------|

G|--------------------------------2|---------------------------------|
D|------------------2-------4------|-----------4-------2------------2|
A|--0--------4---------------------|---------------------------4-----|
E|---------------------------------|---------------------------------|

G|---------------------------------|---------------------------------|
D|------------------2-------4-----2|------------------2-------4-----2|
A|--0--------4---------------------|--0--------4---------------------|
E|---------------------------------|---------------------------------|

G|--------------------------------2|---------------------------------|
D|------------------2-------4------|-----------4-------2------------2|
A|--0--------4---------------------|---------------------------4-----|
E|---------------------------------|---------------------------------|

G|---------------------------------|---------------------------------|
D|------------------2-------4-----2|------------------2-------4------|
A|--0--------4---------------------|--0--------4---------------------|
E|---------------------------------|---------------------------------|

G|---------------------------------|--------------------------------2|
D|------------------2-------4------|------------------2-------4------|
A|--0--------4---------------------|--0--------4---------------------|
E|---------------------------------|---------------------------------|

G|---------------------------------|---------------------------------|
D|------------------4-------2------|------------------2-------4-----2|
A|-----------0---------------------|--0--------4---------------------|
E|---------------------------------|---------------------------------|

G|--------------------------------2|-----------2------2--------------|
D|------------------2-------4------|--------------------------4------|
A|--0--------4---------------------|---------------------------------|
E|---------------------------------|---------------------------------|

Chorus (1:35)

G|---------------------------------|---------------------------------|
D|------------------2-------4------|------------------2-------4------|
A|--0--------4---------------------|--0--------4---------------------|
E|---------------------------------|---------------------------------|

G|--------------------------------2|---------------------------------|
D|------------------2-------4------|-----------4--------2-------4---2|
A|--0--------4---------------------|---------------------------------|
E|---------------------------------|---------------------------------|

G|---------------------------------|---------------------------------|
D|------------------2-------4------|------------------2-------4------|
A|--0--------4---------------------|--0--------4---------------------|
E|---------------------------------|---------------------------------|

G|--------------------------------2|---------------------------------|
D|------------------2-------4------|-----------4-------2-------------|
A|--0--------4---------------------|---------------------------4-----|
E|---------------------------------|---------------------------------|

G|---------------------------------|---------------------------------|
D|------------------2-------4------|------------------2-------4------|
A|--0--------4---------------------|--0--------4---------------------|
E|---------------------------------|---------------------------------|

G|--------------------------------2|---------------------------------|
D|------------------2-------4------|----------4-------2--------------|
A|--0--------4---------------------|--------------------------4------|
E|---------------------------------|---------------------------------|

G|---------------------------------|--0------------------------5-----|
D|------------------0--------------|---------------------------------|
A|---------------------------------|---------------------------------|
E|--0------------------------------|---------------------------------|

G|-----------12--------------------|---------------------------------|
D|----------------14---------------|--12-----------------------------|
A|----------------------15---------|---------------------------------|
E|---------------------------------|---------------------------------|

Verse: (2:08)

G|--------------------------------2|--------------------------------2|
D|------------------2-------4------|-------------------2------4------|
A|-00--------4---------------------|--0--------4---------------------|
E|---------------------------------|---------------------------------|

G|--------------------------------2|---------------------------------|
D|------------------2-------4------|------------------2-------4-----2|
A|--0--------4---------------------|--0--------4---------------------|
E|---------------------------------|---------------------------------|

G|---------------------------------|--------------------------------2|
D|------------------2-------4------|------------------2-------4------|
A|--0--------4---------------------|--0--------4---------------------|
E|---------------------------------|---------------------------------|

G|---------------------------------|---------------------------------|
D|-----------4-------2------------2|------------------2-------4------|
A|--------------------------4------|--0--------4---------------------|
E|---------------------------------|---------------------------------|

G|---------------------------------|---------------------------------|
D|------------------2-------4------|------------------2-------4------|
A|--0--------4---------------------|--0--------4---------------------|
E|---------------------------------|---------------------------------|

G|--------------------------------2|---------------------------------|
D|------------------2-------4------|-----------4-------2-------4-----|
A|--0--------4---------------------|---------------------------------|
E|---------------------------------|---------------------------------|

G|---------------------------------|--------------------------------2|
D|------------------2-------4-----2|------------------2-------4------|
A|--0--------4---------------------|--0--------4---------------------|
E|---------------------------------|---------------------------------|

G|-----------2------2--------------|---------------------------------|
D|--------------------------4------|------------------2-------4------|
A|---------------------------------|--0--------4---------------------|
E|---------------------------------|---------------------------------|

G|---------------------------------|--------------------------------2|
D|------------------2-------4------|------------------2-------4------|
A|--0--------4---------------------|--0--------4---------------------|
E|---------------------------------|---------------------------------|

G|---------------------------------|---------------------------------|
D|-----------4-------2------------2|------------------2-------4-----2|
A|--------------------------4------|--0--------4---------------------|
E|---------------------------------|---------------------------------|

G|--------------------------------2|---------------------------------|
D|------------------2-------4------|-----------4-------2-------------|
A|--0--------4---------------------|---------------------------4-----|
E|---------------------------------|---------------------------------|

G|--------------------------------2|----2------2---------------------|
D|------------------2-------4------|-------------------4-----2------4|
A|--0--------4---------------------|---------------------------------|
E|---------------------------------|---------------------------------|

G|---------2-------2---------------|--------------------------------2|
D|---------------------4----2-----4|-----------4-------2-------4-----|
A|--0------------------------------|--0------------------------------|
E|---------------------------------|---------------------------------|

G|---------------------------------|-----------------0---------------|
D|-----------4-------2-------------|---------------------------------|
A|--------------------------4------|--0------------------------------|
E|---------------------------------|---------------------------------|

G|-----------------0---------------|-----------------5---------------|
D|---------------------------------|---------------------------------|
A|---------------------------------|---------------------------------|
E|---------------------------------|---------------------------------|

Outro: (3:03)

G|--------------------------------2|---------------------------------|
D|------------------2-------4------|-------------------2------4------|
A|-00--------4---------------------|--0--------4---------------------|
E|---------------------------------|---------------------------------|

G|---------------------------------|--------------------------------2|
D|------------------2-------4-----2|-------------------2------4------|
A|--0--------4---------------------|--0--------4---------------------|
E|---------------------------------|---------------------------------|

G|---------------------------------|--------------------------------2|
D|------------------2-------4-----2|-------------------2------4------|
A|--0--------4---------------------|--0--------4---------------------|
E|---------------------------------|---------------------------------|

G|---------------------------------|---------------------------------|
D|--------4---------2-------------2|-------------------2------4-----2|
A|--------------------------4------|--0--------4---------------------|
E|---------------------------------|---------------------------------|

G|--------------------------------2|---------------------------------|
D|------------------2-------4------|-----------4-------2------------0|
A|--0--------4---------------------|--------------------------4------|
E|---------------------------------|---------------------------------|

G|--------------------------------2|---------------------------------|
D|------------------2-------4------|-----------4-------2------------2|
A|--------4------------------------|--------------------------4------|
E|---------------------------------|---------------------------------|

G|--------------------------------2|---------------------------------|
D|------------------2-------4------|-----------4-------2------------2|
A|--0-----4------------------------|--------------------------4------|
E|---------------------------------|---------------------------------|

G|--------------------------------2|---------------------------------|
D|--------4---------2--------------|-------------------2-------4-----|
A|--------------------------4------|--0--------4---------------------|
E|---------------------------------|---------------------------------|

G|--------2------2-----2----2------|--------------------------------2|
D|------------------------------2--|-----------4-------2------4------|
A|--0------------------------------|--0------------------------------|
E|---------------------------------|---------------------------------|

G|---------------------------------|--------------------------------2|
D|----------4-------2--------------|-------------------2-------4-----|
A|--------------------------4------|--0--------4---------------------|
E|---------------------------------|---------------------------------|

G|---------------------------------|--------------------------------2|
D|----------4-------2--------------|-------------------2-------4-----|
A|--------------------------4------|--0--------4---------------------|
E|---------------------------------|---------------------------------|

G|---------------------------------|--------------------------------2|
D|----------4-------2--------------|-------------------2-------4-----|
A|--------------------------4------|--0--------4---------------------|
E|---------------------------------|---------------------------------|

G|---------------------------------|--------------------------------2|
D|----------4-------2--------------|-------------------2-------4-----|
A|--------------------------4------|--0--------4---------------------|
E|---------------------------------|---------------------------------|

G|---------------------------------|
D|----------4-------2--------------|
A|--------------------------4-----0|
E|---------------------------------|


| /  slide up
| \  slide down
| h  hammer-on
| p  pull-off
| ~  vibrato
| +  harmonic
| x  Mute note
Добавлено: 20.11.2013
Другие материалы по этой песне:
  • Аккорды и текст

Страница создана 20.11.2013
http://primanota.ru/wings/helen-wheels-chords.htm
Привет, Гость.
Предлагаем пройти революционный курс по гитаре.
Подарок от PrimaNota.Ru, забирай!