PrimaNota.ru - самый крупный в мире бесплатный архив песенных текстов, аккордов, табулатур и нот


Wings - Spin It On - текст песни, бас-таба, видео

Регистрация Запомнить меня
Войти через:  Facebook Google Twitter Vk Yandex Mail.ru

Wings - Spin It On - текст песни, бас-таба, видео

Печатать
Просмотров: 169
Авторы музыки: Paul McCartney

"Spin it on, don't stop" 
|------------------------------------------------------------------|
|------------------------------------------------------------------|
|0-3-0-3-0-3-0-3-0-3-0-3-0-3-0-3----------------0-3-0-3-0-3-0-3----|
|--------------------------------0-3-0-3-0-3-0-3-------------------|
"That's why, I wanna Spin It On, spin it on!"
|------------------------------------------------------------------|
|------------------------------------------------------------------|
|---------------0-3-0-3-0-3-0-3------------------------------------|
|0-3-0-3-0-3-0-3---------------------------------------------------|
Solo 
|------------------------------------------------------------------|
|------------------------------------------------------------------|
|0-3-0-3-0-3-0-3-0-3-0-3-0-3-0-3----------------0-3-0-3-0-3-0-3----|
|--------------------------------0-3-0-3-0-3-0-3-------------------|
 "Off to the flix, with the piddle in her nix" 
|------------------------------------------------------------------|
|------------------------------------------------------------------|
|0-3-0-3-0-3-0-3-0-3-0-3-0-3-0-3----------------0-3-0-3-0-3-0-3----|
|--------------------------------0-3-0-3-0-3-0-3-------------------|
"Her cousin had to spend the night in an aircraft" 
|------------------------------------------------------------------|
|------------------------------------------------------------------|
|---------------0---0---0------------------------------------------|
|0-3-0-3-0-3-0-3---------------------------------------------------|
Everything pretty much repeats again in same order


Добавлено: 02.12.2013
Другие материалы по этой песне:
  • Аккорды и текст

Страница создана 06.05.2012
http://primanota.ru/wings/spin-it-on-chords.htm
Привет, Гость.
Предлагаем пройти революционный курс по гитаре.
Подарок от PrimaNota.Ru, забирай!