PrimaNota.ru - самый крупный в мире бесплатный архив песенных текстов, аккордов, табулатур и нот


Wings - Reception - бас-таба, видео

Регистрация Запомнить меня
Войти через:  Facebook Google Twitter Vk Yandex Mail.ru

Wings - Reception - бас-таба, видео

Печатать
Просмотров: 140
Авторы музыки: Paul McCartney

Start at 0:13

G|--------------------------------------|
D|-----------------5--------------------|
A|-----------2-5-7---7\3-7-5-7-5-2-0----|
E|--0-2-3-5--------------------------3--|   x10


the eleventh time it's fading out so in the original song it goes like this:

G|-----------------------------------|
D|-----------------5-----------------|
A|-----------2-5-7---7\3-7-5-7-5-----|
E|--0-2-3-5--------------------------|

as the song ends with an old norwegian radio narrator saying
"la oss prøve et øyeblikk å se dette i lys av det nye testamentet"
meaning: "let us try for a second to see this in the light of the new testament"

if you ever want to play this live I'd suggest using this tab the eleventh time

G|---------------------------------------------|
D|-----------------5---------------------------|
A|-----------2-5-7---7\3-7-5-7-5-2-0-----------|
E|--0-2-3-5--------------------------3-0-3-0-0-|
Добавлено: 14.07.2013
Другие материалы по этой песне:
  • Аккорды и текст

Страница создана 14.07.2013
http://primanota.ru/wings/reception-chords.htm
Привет, Гость.
Предлагаем пройти революционный курс по гитаре.
Подарок от PrimaNota.Ru, забирай!