PrimaNota.ru - самый крупный в мире бесплатный архив песенных текстов, аккордов, табулатур и нот


Wings - Leave Me Be - таба, видео

Регистрация Запомнить меня
Войти через:  Facebook Google Twitter Vk Yandex Mail.ru

Wings - Leave Me Be - таба, видео

Печатать
Просмотров: 88
MUSIC AND LYRICS BY: THE WINGS
(contact thewingsband@yahoo.com)

Moderate: 101

Lead Guitar
      E  E   E   S  S E  E  E  S S    E  E  E  S S E  E  Q     5x
E||--------------------------------|---------------------x-----||
B||---------11---9--x-------9--7-x-|--------4--4-4-4--4--2-----||
G||*--------10--10-10-------8--8-8-|--------3--x-x-3--3--3----*||
D||*--x--x--11--11-11-x--x--9--9-9-|--x--x--4--4-x-4--4--4----*||
A||---x--x------------x--x---------|--x--x---------------------||
E||---9--9------------7--7---------|--2--2---------------------||


  Q    S E.  Q    S E.     Q    S S E  Q    Q        E   E  Q    S  S      
--x----x----------------|-------------------x----||-------------------------
--x----x-x--------------|-------------------2----||-------------------------
--5----x-x---8----8-8---|--1----x-1-1--1----3----||*--2h--4--4---------2--4-
--6----6-6---9----9-9---|--2----2-2-2--2----4----||*--------------2h-4-x--4-
--3----3-3---9----9-9---|--2----2-x-2--2----4----||--------------------2--2-
--4----4-4---7----7-x---|--0----0-0-0--0----2----||-------------------------

                                                      ________________1,2,3
  E   E  Q    S  S E  Q       Q    Q    E  E  S S E     H        H       3x
---------------------------|-------------------------|-------------------||
---------------------------|--2----2----x--2---------|--2--------4-------||
--4h--6--6---------4--6----|--3----3----3--3---------|--x--------x------*||
--------------4h-6-x--6----|--4----4----4--4------4--|--2--------4------*||
-------------------4--4----|--4----x----x--x--4-6----|--0--------2-------||
---------------------------|--2----2----2--2---------|-------------------||

__________________4                                                      
  W                                 E  E   E   S  S E  E  E  S S  
-------------------|-----------||--------------------------------|
-------------------|--Drum-----||---------11---9--x-------9--7-x-|
-------------------|-----Break-||*--------10--10-10-------8--8-8-|
--4----------------|-----------||*--x--x--11--11-11-x--x--9--9-9-|
-------------------|-----------||---x--x------------x--x---------|
-------------------|-----------||---9--9------------7--7---------|


  E  E  E  S S E  E  Q     5x  Q    S E.  Q    S E.     Q    S S E  Q    Q     
---------------------x-----||--x----x----------------|-------------------x--
--------4--4-4-4--4--2-----||--x----x-x--------------|-------------------2--
--------3--x-x-3--3--3----*||--5----x-x---8----8-8---|--1----x-1-1--1----3--
--x--x--4--4-x-4--4--4----*||--6----6-6---9----9-9---|--2----2-2-2--2----4--
--x--x---------------------||--3----3-3---9----9-9---|--2----2-x-2--2----4--
--2--2---------------------||--4----4-4---7----7-x---|--0----0-0-0--0----2--


    E   E  Q    S  S E  Q       E   E  Q    S  S E  Q     
||----------------------------|---------------------------|
||----------------------------|---------------------------|
||*--2h--4--4---------2--4----|--4h--6--6---------4--6----|
||*--------------2h-4----4----|--------------4h-6----6----|
||--------------------2--2----|-------------------4--4----|
||----------------------------|---------------------------|


                         _________________1,2,3   __________________4 
  Q    Q    E  E  S S E     H        H         3x  W                 
-------------------------|---------------------||-------------------|
--2----2----x--2---------|--2--------4---------||-------------------|
--3----3----3--3---------|--x--------x--------*||-------------------|
--4----4----4--4------4--|--2--------4--------*||--4----------------|
--4----x----x--x--4-6----|--0--------2---------||-------------------|
--2----2----2--2---------|---------------------||-------------------|


-----------||
-Drum------||
-----Break-|| And Fade out
-----------||
-----------||
-----------||




Duration Legend
---------------
W - whole
H - half
Q - quarter
E - 8th
S - 16th
T - 32nd
X - 64th
. - note dotted
|-n-|  - n-tuplets


Tablature Legend
----------------
L - tied note
x - dead note
g - grace note
(n) - ghost note
> - accentuded note
NH - natural harmonic
AH - artificial harmonic
TH - tapped harmonic
SH - semi harmonic
PH - pitch harmonic
h - hammer on
p - pull off
b - bend
br - bendRelease
pb - preBend
pbr - preBendRelease
brb - bendReleaseBend
\n/ - tremolo bar dip
\n - tremolo bar dive
-/n - tremolo bar Release up
/n\ - tremolo bar inverted dip
/n - tremolo bar return
-\n - tremolo bar Release down
S - shift slide
s - legato slide
/ -  slide into from below or out of upwards
\ -  slide into from above or out of downwards
~ - vibrato
W - wide vibrato
tr - trill
TP - tremolo picking
T - tapping
S - slap
P - pop
< - fade in
^ - brush up
v - brush down
Добавлено: 29.06.2013
Другие материалы по этой песне:
  • Аккорды и текст

Страница создана 29.06.2013
http://primanota.ru/wings/leave-me-be-chords.htm
Привет, Гость.
Предлагаем пройти революционный курс по гитаре.
Подарок от PrimaNota.Ru, забирай!