PrimaNota.ru - самый крупный в мире бесплатный архив песенных текстов, аккордов, табулатур и нот


Wilco - Im Always In Love Live - аккорды и текст, таба, видео

Регистрация Запомнить меня
Войти через:  Facebook Google Twitter Vk Yandex Mail.ru

Wilco - Im Always In Love Live - аккорды и текст, таба, видео

Печатать
Просмотров: 85
Im Always In Love Live
Wilco
My first tab! its raining outside, and im bored so here it is.
 note: im not good with theory and terms, i will try my best

The chords are the following:
F#maj B  Bbm  Abm  C#
-x-----7----x-----x----9--------|
-11----7----14----12---9--------|
-11----8----15----13---10-------|
-11----9----15----13---11-------|
-9-----9----13----11---11-------|
-x-----x----x-----x----9--------|


Intro:

4 times

F#maj   B
-x-------7\6------------|
-11------7--------------|
-11------8--------------|
-11------9--------------|
-9-------9--------------|
-x-------x--------------|

(F#maj)Why I wonder, is my (Bmaj)heart full of holes? (F#maj)(Bmaj)
(F#maj)And the feeling goes but my (Bmaj)hair keeps growing (F#maj)(Bmaj)
(F#maj)Will I set the (Bmaj)sun
(Bbm)On A (Abm)big-wheeled (C#)wagon?
(Bmaj)Oh I'm bragging
I'm always in love (F#maj)(Bmaj)(F#maj)(Bmaj)

Bbm  B Abm  C#
-6----7----4----9--------------|
-6----7----4----9--------------|
-6----8----4----10-------------|
-8----9----6----11-------------|
-8----9----6----11-------------|
-x----x----x----x--------------|

(A#m)I don't get the connection
(Bmaj)If this is only a test
(G#m)I hope I do my best
(C#)You know I won't forget

 C#     B Bbm  Abm
-9-------7----6----4----------|
-9-------7----6----4----------|
-10-10---8----6----4----------|
-11--13--9----8----6----------|
-11------9----8----6----------|
-9-------x----x----x----------|

(F#maj)(Bmaj)(F#maj)(Bmaj)

(F#maj)When I fold the cold in my (Bmaj)jet-lag palm (F#maj)(Bmaj)
(F#maj)When I soak so long I (Bmaj)forget my mother (F#maj)(Bmaj)
(F#maj)Will I set the (Bmaj)sun
(Bbm)On A (Abm)big-wheeled (C#)wagon?
(Bmaj)Oh I'm bragging
I'm always in love (F#maj)(Bmaj)

After this part^ he does a pull off with the F#maj:
-x----x-------|
-11---11------|
-11---9-------|
-11---11------|
-9----9-------|
-x----x-------|

(F#maj)It's a drag I sang
(Bmaj)Oh I'm always in love (F#maj)(Bmaj)
(F#maj)I'm worried
(Bmaj)I'm always in love (F#maj)(Bmaj)(F#maj)(Bmaj)

(F#maj)Oh I'm worried
(Bmaj)I'm worried
(F#maj)I'm worried
(Bmaj)I'm always in love (F#maj)(Bmaj)

End with F#maj
Добавлено: 27.06.2012
Другие материалы по этой песне:
  • Аккорды и текст

Страница создана 27.06.2012
http://primanota.ru/wilco/im-always-in-love-live-chords.htm
Привет, Гость.
Предлагаем пройти революционный курс по гитаре.
Подарок от PrimaNota.Ru, забирай!