PrimaNota.ru - самый крупный в мире бесплатный архив песенных текстов, аккордов, табулатур и нот


Wilco - Born Alone - аккорды и текст, видео

Регистрация Запомнить меня
Войти через:  Facebook Google Twitter Vk Yandex Mail.ru

Wilco - Born Alone - аккорды и текст, видео

Печатать
Просмотров: 126
Авторы музыки: Jeff Tweedy, Pat Sansone
Авторы текста: Jeff Tweedy, Pat Sansone
Born Alone
Wilco
-------------------------------------------------------------------------------
                          Born Alone - Wilco
-------------------------------------------------------------------------------
Tabbed by: Jeff (not Tweedy)
Email:



Intro F Bb x2

(note: for that extra bit of dissonance on the Bb, play a b5th and resolve it up 
to the 5th--IE  Bb chord with an Fb note which is E then F

e|-0--1-------0--1--------------------------------------------------------|
B|-3--3-------1--1--------------------------------------------------------|
G|-3--3---or--3--3--------------------------------------------------------|
D|------------------------------------------------------------------------|
A|------------------------------------------------------------------------|
E|------------------------------------------------------------------------|

F                         Bb
I have heard the wall and worried of the gospel
F                        Bb
Ferry faust it crossed a void
F                     Bb
I have married broken spoke charging smoke wheels 
F                   Bb
Spit and swallowed opioids

C                      Eb
I am the driver at the wheel of the order
C                       Bb
Marching circles at the gate
   F         Eb
My eyes have seen the fury
C               Bb
So flattered by fate

F                            Bb
Tonight I'd rather count the warm fuse ?
F                       Bb
Subtract the silence of myself
F                       Bb
I would rather choose a million mind of mystery
F                        Bb
Be just the rigor for my health
C            Eb
I wonder why strange rhymes overpower me
C                        Bb
Toss the chimneys in the sea
     F         Eb
I believe I've seen the finger
   C    Bb
To hide extremity

F  Bb 
  
C   Bb  Ab   G

C   Bb  Ab   F# (F#)  F__________Bb


Please come closer to the feather smooth lens fry
Sadness is my luxury
Will you wear torn the cold come before I die
More aware of it than me

Without the glowing stone
The kids are unabashed 
Loneliness postponed
My eyes deceiving glory
I was born to die alone

Alone

guitar melody

e|-8-8-8-8---10-8---------------------------------------------------------|
B|-----------------10-----------------------------------------------------|
G|--------------------9-9-9-9-9--10-10------------------------------------|
D|------------------------------------------------------------------------|
A|------------------------------------------------------------------------|
E|------------------------------------------------------------------------|


************************************

| /   slide up
| \   slide down
| h   hammer-on
| p   pull-off
| ~   vibrato
| +   harmonic
| x   Mute note
| b   Bend
| pb  Pre-bend
| br  Bend release
| pbr Pre-bend release
| brb Bend release bend

************************************
************************************
Добавлено: 21.04.2012
Другие материалы по этой песне:
  • Аккорды и текст

Страница создана 21.04.2012
http://primanota.ru/wilco/born-alone-chords.htm
Привет, Гость.
Предлагаем пройти революционный курс по гитаре.
Подарок от PrimaNota.Ru, забирай!