PrimaNota.ru - самый крупный в мире бесплатный архив песенных текстов, аккордов, табулатур и нот


Whitesnake - Lovehunter - текст песни, таба, видео

Регистрация Запомнить меня
Войти через:  Facebook Google Twitter Vk Yandex Mail.ru

Whitesnake - Lovehunter - текст песни, таба, видео

Печатать
Просмотров: 151
Авторы: David Coverdale, Bernie Marsden, Micky Moody

-------------------------------------------------------------------------------
                             Lovehunter - Whitesnake
-------------------------------------------------------------------------------
Tabbed by: Sadie Williams
E-mail: sadiewilliams1997@gmail.com

Tuning: Standard      *note: this is the basic outline for the song... don't be hatin' if it isn't perfect*

(Intro)

   G

e|---------------------------------|
B|-----3-------3-------1-----------|
G|-----------------------------0---|  (Repeat for about 15 measures or so...)
D|---------3-------2---------------|
A|-------------------------1-------|
E|-3-------------------------------|

 Lead Guitar:
e|------------|------------|---13b15---|
B|------------|---13b15----|-----------|
G|---10b12----|------------|-----------|
D|------------|------------|-----------|
A|------------|------------|-----------|
E|------------|------------|-----------|

I need a woman to treat me good
And give me everything a good woman should
Everyday and every night
She'd be waiting on her brown-eyed boy...

     Bb  /   C   /   D                 G-------------------------------------
 
e|----------------------------------|-------------------------|----------------------|
B|----------------------------------|-------------------------|----------------------|
G|---3---3---5---5---7--------------|-------------------------|----------------------|
D|---3---3---5---5---7--------------|--5----------------------|----------------------|
A|---1---1---3---3---5--------------|--5----------------------|----------------------|
E|----------------------------------|--3----------------------|----------------------|
     1   &   2   &   3------4          (Let Ring.........................)   

To come and treat her right    I'm a love hunter baby,  Sneaking up on you,          

    G                                    G
e|-------------------------------------|-----------------------------------|
B|-------------------------------------|-----------------------------------|
G|-------------------------------------|-----------------------------------|
D|------5-------5------------3---------|-----5-------5------------3--------|
A|---------------------3--5------3--5--|--------------------3--5-----3--5--|
E|--3-------3------3-------------------|-3-------3------3------------------|

    C------------------------------------------
e|---------------------------|----------------------|
B|---------------------------|----------------------|
G|---5-----------------------|----------------------|
D|---5-----------------------|----------------------|
A|---3-----------------------|----------------------|
E|---------------------------|----------------------|

     I'm a love hunter baby,   Sneaking up on you

e|-------------------------------------|-----------------------------------|
B|-------------------------------------|-----------------------------------|
G|-------------------------------------|-----------------------------------|
D|------5-------5------------3---------|-----5-------5------------3--------|
A|---------------------3--5------3--5--|--------------------3--5-----3--5--|
E|--3-------3------3-------------------|-3-------3------3------------------|

   
    D-------------------------------------------
e|---------------------------|----------------------|
B|---------------------------|----------------------|
G|--7------------------------|----------------------|
D|--7------------------------|----------------------|
A|--5------------------------|----------------------|
E|---------------------------|----------------------|

     I'm gonna give you all my lovin'

e|---5---------2--------------|---------------------------------------------|
B|---6----3----3--------------|---------------------------------------------|
G|---5----3----2---5--5-------|--3-----3-----3------------------------------|
D|--------3--------5--5-------|--3-----3-----3-------5----------------------|
A|-----------------3--3-------|--1-----1-----1-------5----------------------|
E|----------------------------|----------------------3----------------------|
                                 And use my tail on you

(Repeat Intro/Verse and Chorus section) *Without leads*


(Intro/Verse)

In my time I've been a back door man,
I've taken everything I could
But, I've given all I can
I don't want no woman
To weep or moan,
I'm looking for a sweet heartbreaker
And I'm never gonna leave her alone

(Chorus)

I'm a love hunter baby
Sneaking up on you,
I'm a love hunter baby
What you gonna do?
I'm gonna give you all my loving
And use my tail on you

Bridge
G---F---C---F---G  (Play these Chords at the bridge before the Solos)


(Solo Section) *Play some tasty licks in G minor


Basically thats the song.... repeat the ending parts as much as ya want!


************************************

| /   slide up
| \   slide down
| h   hammer-on
| p   pull-off
| ~   vibrato
| +   harmonic
| x   Mute note
| b   Bend
| pb  Pre-bend
| br  Bend release
| pbr Pre-bend release
| brb Bend release bend

************************************
Добавлено: 14.06.2015
Другие материалы по этой песне:

Страница создана 27.02.2012
http://primanota.ru/whitesnake/lovehunter-chords.htm
Привет, Гость.
Предлагаем пройти революционный курс по гитаре.
Подарок от PrimaNota.Ru, забирай!