PrimaNota.ru - самый крупный в мире бесплатный архив песенных текстов, аккордов, табулатур и нот


Whitesnake - Would I Lie To You - текст песни, бас-таба, видео

Регистрация Запомнить меня
Войти через:  Facebook Google Twitter Vk Yandex Mail.ru

Whitesnake - Would I Lie To You - текст песни, бас-таба, видео

Печатать
Просмотров: 146
Авторы: David Coverdale, Bernie Marsden, Micky Moody

-------------------------------------------------------------------------------
                    Would I lie To You - Whitesnake
-------------------------------------------------------------------------------

Tabbed by: ChrisT

From the Album: Come and Get It (1981)

Here's a song for ya!

Tuning: standard

Verse 1
G|--------------|-------------|-------------|-------------|-------------|
D|o-------------|-------------|-------------|-------------|-------------|
A|o--2-2-0-2----|--2-2-0-2----|-------------|-------------|--7-7-5-7----|
E|--------------|-------------|--2-2-0-2----|--2-2-0-2----|-------------|

        Repeat x2 Last bar play 1st time only          
G|--------------|-------------|-------------|
D|--------------|-------------|------------o|
A|--5-----------|--2-2-0-2----|--2-2-0-2---o|
E|--------5-----|-------------|-------------|

Chorus
G|------------------|--------------------|-------------------|
D|o-----------------|--------------------|-------------------|
A|o--0---0---0------|-0h2-2-2-2-2-2-2-2--|--2-2-2-2-2-2-2-2--|
E|------------------|--------------------|-------------------|

G|--------------------|-------------------|-------------------|
D|--------------------|-------------------|-------------------|
A|--------------------|-------------------|--------------4-5--|
E|-0h2-2-2-2-2-2-2-2--|--2-2-2-2-2-2-2-2--|--5-5-5-5-5-7------|

       Repeat x2 Last bar play 1st time only          
G|-------------------|---------------------|
D|-------------------|--------------------o|
A|--7-7-7-7-7-7-7-7--|-0h2-2-2-2-2-2-2-2--o|
E|-------------------|---------------------|

           Repeat x3
G|------------------|-------------------|
D|o----------------o|-------------------|
A|o--5-5---5-------o|--2----------------|
E|-------------5----|-------------------|

Verse 2
G|--------------|-------------|-------------|-------------|-------------|
D|o-------------|-------------|-------------|-------------|-------------|
A|o--2-2-0-2----|--2-2-0-2----|-------------|-------------|--7-7-5-7----|
E|--------------|-------------|--2-2-0-2----|--2-2-0-2----|-------------|

        Repeat x2 Last bar play 1st time only          
G|--------------|-------------|-------------|
D|--------------|-------------|------------o|
A|--5-----------|--2-2-0-2----|--2-2-0-2---o|
E|--------5-----|-------------|-------------|

Chorus
G|------------------|--------------------|-------------------|
D|o-----------------|--------------------|-------------------|
A|o--0---0---0------|-0h2-2-2-2-2-2-2-2--|--2-2-2-2-2-2-2-2--|
E|------------------|--------------------|-------------------|

G|--------------------|-------------------|-------------------|
D|--------------------|-------------------|-------------------|
A|--------------------|-------------------|--------------4-5--|
E|-0h2-2-2-2-2-2-2-2--|--2-2-2-2-2-2-2-2--|--5-5-5-5-5-7------|

       Repeat x2 Last bar play 1st time only         Repeat x3     
G|-------------------|---------------------|------------------|
D|-------------------|--------------------o|o----------------o|
A|--7-7-7-7-7-7-7-7--|-0h2-2-2-2-2-2-2-2--o|o--5-5---5-------o|
E|-------------------|---------------------|-------------5----|

Bridge                                               Repeat x6
G|--4----------------|---2---------------|--4-----------------|
D|--4----------------|o--2---------------|--4----------------o|
A|--2----------------|o--0---------------|--2----------------o|
E|-------------------|-------------------|--------------------|
                                         
Chorus
G|----------------------|--------------------|-------------------|
D|o--2h4----------------|--------------------|-------------------|
A|o------0---0---0------|-0h2-2-2-2-2-2-2-2--|--2-2-2-2-2-2-2-2--|
E|----------------------|--------------------|-------------------|

                       Play 1st time only  Play 2nd time only
G|--------------------|-------------------|-------------------|
D|--------------------|-------------------|-------------------|
A|--------------------|-------------------|------2-2-4-4-6-6--|
E|-0h2-2-2-2-2-2-2-2--|--2-2-2-2-2-2-2-2--|--2-2--------------|

                           Repeat x2 Play last bar 1st time only 
G|-------------------|-------------------|---------------------|
D|-------------------|-------------------|--------------------o|
A|--------------4-5--|--7-7-7-7-7-7-7-7--|-0h2-2-2-2-2-2-2-2--o|
E|--5-5-5-5-5-7------|-------------------|---------------------|

           Repeat x3
G|------------------|-------------------|
D|o----------------o|-------------------|
A|o--5-5---5-------o|--2----------------|
E|-------------5----|-------------------|

Outro
G|--4-4-2-2----------|---------------------|-------------------|
D|----------4---2----|o--------------------|-------------------|
A|----------------2--|o-0h2-2-2-2-2-2-2-2--|--2-2-2-2-2-2-2-2--|
E|-------------------|---------------------|-------------------|

G|--------------------|-------------------|-------------------|
D|--------------------|-------------------|-------------------|
A|--------------------|-------------------|--------------4-5--|
E|-0h2-2-2-2-2-2-2-2--|--2-2-2-2-2-2-2-2--|--5-5-5-5-5-7------|
 
                      Repeat x2 Last 2 bars play 1st time only
G|-------------------|--------------------|------------------|
D|-------------------|--------------------|-----------------o|
A|--7-7-7-7-7-7-7-7--|-0h2-2-2-2-2-2-2-2--|--0---0---0------o|
E|-------------------|--------------------|------------------|

            Repeat x3
G|-------------------|--4----------------|
D|o-----------------o|--4----------------|
A|o--5-5---5--------o|--2----------------|
E|-------------5-----|-------------------|


===============================================================================

Please rate or comment.....
Добавлено: 26.08.2013
Другие материалы по этой песне:
  • Аккорды и текст

Страница создана 20.07.2012
http://primanota.ru/whitesnake/would-i-lie-to-you-chords.htm
Привет, Гость.
Предлагаем пройти революционный курс по гитаре.
Подарок от PrimaNota.Ru, забирай!