PrimaNota.ru - самый крупный в мире бесплатный архив песенных текстов, аккордов, табулатур и нот


Weezer - Blodwin My Stack - таба, видео

Регистрация Запомнить меня
Войти через:  Facebook Google Twitter Vk Yandex Mail.ru

Weezer - Blodwin My Stack - таба, видео

Печатать
Просмотров: 67
Weezer - Blodwin' My Stack

Tab by: alvinhorafael@hotmail.com
-------------------------------------------------------------------------------

Verse:
       C       D        F       G
e|---3----3---5----5---1-1-----3-3-|
B|---3----3---5----5---1-1-----3-3-|
G|---5----5---7----7---2-2-----4-4-|4x
D|------5--------7-----3-3-----5-5-|
A|-3---3----5---5----3---------5-5-|
E|-3--------5--------1-----1/3-----|

Chorus:
      C         D         F           G
e|---3-3-------5-5-------1-1-1-0--3-3-3-3-3-3-|
B|---3-3-6-5---5-5-6-5---1-1------3-3-3-3-3-3-|
G|---5-5-------7-7-------2-2------4-4-4-4-4-4-|2x
D|---5-5-------7-7-------3-3------5-5-5-5-5-5-|
A|-3---------5---------1----------5-5-5-5-5-5-|
E|-3---------5---------3----------3-3-3-3-3-3-|

Verse:
       C       D        F       G
e|---3----3---5----5---1-1-----3-3-|
B|---3----3---5----5---1-1-----3-3-|
G|---5----5---7----7---2-2-----4-4-|4x
D|------5--------7-----3-3-----5-5-|
A|-3---3----5---5----3---------5-5-|
E|-3--------5--------1-----1/3-----|

Chorus:
      C         D         F           G
e|---3-3-------5-5-------1-1-1-0--3-3-3-3-3-3-|
B|---3-3-6-5---5-5-6-5---1-1------3-3-3-3-3-3-|
G|---5-5-------7-7-------2-2------4-4-4-4-4-4-|2x
D|---5-5-------7-7-------3-3------5-5-5-5-5-5-|
A|-3---------5---------1----------5-5-5-5-5-5-|
E|-3---------5---------3----------3-3-3-3-3-3-|

Solo:

e|-----------------------------------1111----11--11-13-11---...
B|-6b-4-6b6b-4--8-6-4-6-4-----------------13---13--------13-...
G|------------------------5-3--10b-8------------------------...
D|----------------------------------------------------------...
A|----------------------------------------------------------...
E|----------------------------------------------------------...

...|-------------------------------------------13b-11-8-11-8-11-13-8-...
...|-----------------------------------------------------------------...
...|-11-11b-x-11b--11-11b-x-11b--11-11b-x-11b------------------------...
...|-----------------------------------------------------------------...
...|-----------------------------------------------------------------...
...|-----------------------------------------------------------------...

  Slow
...|-11b-11b-6-4-3-1-3-6-3-1---------3b----------------|
...|----------------4-----4-4--1-3-4----646------------|
...|----------------------------------------33-55-33-1-|
...|---------------------------------------------------|
...|---------------------------------------------------|
...|---------------------------------------------------|

Bridge:
 No guitar on:
"I'm too tired to fight
  I'm too tired to fight
  I'm too tired to fight!
  I'm too tired to fight
  Fight, fiiiiight"
     C  Eb   C   F  C
e|-3-3-3/6/3-3-3/8//3-|
B|-3-3-3/6/3-3-3/8//3-|
G|-5-5-5/8/5-5-5/10/5-|4x
D|-5-5-5/8/5-5-5/10/5-|
A|-3-3-3/6/3-3-3/8//3-|
E|-3-3-3/6/3-3-3/8//3-|

Chorus:
      C         D         F           G
e|---3-3-------5-5-------1-1-1-0--3-3-3-3-3-3-|
B|---3-3-6-5---5-5-6-5---1-1------3-3-3-3-3-3-|
G|---5-5-------7-7-------2-2------4-4-4-4-4-4-|6x
D|---5-5-------7-7-------3-3------5-5-5-5-5-5-|
A|-3---------5---------1----------5-5-5-5-5-5-|
E|-3---------5---------3----------3-3-3-3-3-3-|

End With:

e|-3-3-3/6-3~-|
B|-3-3-3/6-3~-|
G|-5-5-5/8-5~-|
D|-5-5-5/8-5~-|
A|-3-3-3/6-3~-|
E|-3-3-3/6-3~-|

Thank to read. Vote and Coment.
Добавлено: 11.11.2013
Другие материалы по этой песне:
  • Аккорды и текст

Страница создана 11.11.2013
http://primanota.ru/weezer/blodwin-my-stack-chords.htm
Привет, Гость.
Предлагаем пройти революционный курс по гитаре.
Подарок от PrimaNota.Ru, забирай!