PrimaNota.ru - самый крупный в мире бесплатный архив песенных текстов, аккордов, табулатур и нот


Weezer - Island In The Sun - аккорды и текст, таба, бас-таба, драм-таба, видео

Регистрация Запомнить меня
Войти через:  Facebook Google Twitter Vk Yandex Mail.ru

Weezer - Island In The Sun - аккорды и текст, таба, бас-таба, драм-таба, видео

Печатать
Просмотров: 2598
Авторы музыки: Rivers Cuomo
Авторы текста: Rivers Cuomo
Island In The Sun
Weezer
 hi, the other two tabs of this got the basic chord rythem right but were the wrong chords.
it goes.........

Em    Am            D     G
         When your on a holiday

Em    Am            D         G
         You cant find the words to say

This is all it is until it reaches 

On an island in the sun ........lalala

This is just played as continuous D's and G's

there are litles riffs based around the 7th 8th and 9th threat using the B and G strings, this is pretty 
simple somehting like this.

e|---------------------------------------------------|
B|-----8-----8-----8-----8-----7-----7-----8-----8---|
G|--9-----9-----9-----9-----7-----7-----7-----7------|
D|---------------------------------------------------|
A|---------------------------------------------------|
E|---------------------------------------------------|

This an be played during the verse and as the outro.

for all use who like playing power chords here are them.....

  Em    Am     D     G
e|-7--x--5--x--5--x--3---|
B|-8--x--5--x--7--x--3---|
G|-9--x--5--x--7--x--3---|
D|-9--x--7--x--7--x--5---|
A|-7--x--7--x--5--x--5---|
E|----x--5--x-----x--3---|
 
You can pretty much figure out the strumming yourself by listening to it, its a great song happy strumming:]

Cookie of cumbria tabbing. MSC


 
Добавлено: 29.03.2012
Другие материалы по этой песне:

Страница создана 24.02.2012
http://primanota.ru/weezer/island-in-the-sun-chords.htm
Привет, Гость.
Предлагаем пройти революционный курс по гитаре.
Подарок от PrimaNota.Ru, забирай!