PrimaNota.ru - самый крупный в мире бесплатный архив песенных текстов, аккордов, табулатур и нот


Weezer - New Joint - таба, видео

Регистрация Запомнить меня
Войти через:  Facebook Google Twitter Vk Yandex Mail.ru

Weezer - New Joint - таба, видео

Печатать
Просмотров: 84
Уроки эстрадного вокала в Санкт-Петербурге
New Joint by Weezer
submitted by: CopperForever@aol.com
Standard Tuning
 
Verse: (*play each cord eight times)
_C5____F5____C5____F5____E5____A5____D5____B5
-------------------------------------------------
-------------------------------------------------
-5--5--------5--5--------------2--2--7--7--4--4--
-5--5--3--3--5--5--3--3--2--2--2--2--7--7--4--4--
-3*-3*-3--3--3*-3*-3--3--2--2--0*-0*-5*-5*-2*-2*-
-------1*-1*-------1*-1*-0*-0*-------------------
 
Chorus:
_C5____F5____C5____F5____C5____F5____G5
-------------------------------------------
-------------------------------------------
-5--5--------5--5--------5--5--------------
-5--5--3--3--5--5--3--3--5--5--3--3--5--5--
-3*-3*-3--3--3*-3*-3--3--3*-3*-3--3--5--5--
-------1*-1*-------1*-1*-------1*-1*-3*-3*-
 
Solo:
---------------------------------------------------
-------------------------------------8--6-5--5-6---
-9--9-7-5-5--5-7-5-9--9-7-5-5--5-7-5-------------7-
---------------------------------------------------
---------------------------------------------------
---------------------------------------------------
 
Outro:
_C5_______F5___G5
--------------------
--------------------
-55555555-----------
-55555555-3333-5555-
-33333333-3333-5555-
----------1111-3333-

     
Добавлено: 22.10.2013
Другие материалы по этой песне:
  • Аккорды и текст

Страница создана 22.10.2013
http://primanota.ru/weezer/new-joint-chords.htm
Привет, Гость.
Предлагаем пройти революционный курс по гитаре.
Подарок от PrimaNota.Ru, забирай!