PrimaNota.ru - самый крупный в мире бесплатный архив песенных текстов, аккордов, табулатур и нот


Wednesday 13 - Upon This Noose - таба, видео

Регистрация Запомнить меня
Войти через:  Facebook Google Twitter Vk Yandex Mail.ru

Wednesday 13 - Upon This Noose - таба, видео

Печатать
Просмотров: 78
This tab is created by LivingDead31

Album: Dead Meat 10 Years of Blood, Feathers & Lipstick
Tuning: Drop C

/ =slide up



[Intro]


[Guitar 1]


D--------------------------------------------------------------
A--------------------------------------------------------------
F--------------------------------------------------------------
C--2------2-----------------2-----------5---5--5----7---7--7---
G--2------2-----------------2-----------5---5--5----7---7--7---
C--2------2-----------------2-----------5---5--5----7---7--7---


[Guitar 2]


D---------------------5-7-5-7----7-------15---14-12---15---14-12---
A--5-------5-------------------------------------------------------
F------------------------------------------------------------------
C------------------------------------------------------------------
G------------------------------------------------------------------
C------------------------------------------------------------------




[Verse]



[Guitar 1]


D----------------------------------------------------------------
A----------------------------------------------------------------
F----------------------------------------------------------------
C--2------/-2-----------------2-----------5---5--5----7---7--7---
G--2------/-2-----------------2-----------5---5--5----7---7--7---
C--2------/-2-----------------2-----------5---5--5----7---7--7---



[Guitar 2]


D----------------------------------------15---14-12---15---14-12---
A------------------------------------------------------------------
F------------------------------------------------------------------
C------------------------------------------------------------------
G------------------------------------------------------------------
C------------------------------------------------------------------  Repeat (X4)



[Chorus]


D----------------------------------------------------------
A----------------------------------------------------------
F----------------------------------------------------------
C--9------11------5------7-------9------11------5------7---
G--9------11------5------7-------9------11------5------7---
C--9------11------5------7-------9------11------5------7---





[Outro]



[Guitar 1]


D------------------------------------------------------------------------
A------------------------------------------------------------------------
F------------------------------------------------------------------------
C--2----/--2-----------------2-----------5---5--5----7---7--7--------2---
G--2----/--2-----------------2-----------5---5--5----7---7--7--------2---
C--2----/--2-----------------2-----------5---5--5----7---7--7--------2---




[Guitar 2]



D------5-7-5-7----------5-7-5-7---------15---14-12---15---14-12----
A------------------------------------------------------------------
F------------------------------------------------------------------
C------------------------------------------------------------------
G------------------------------------------------------------------
C------------------------------------------------------------------
Добавлено: 22.06.2016
Другие материалы по этой песне:
  • Аккорды и текст

Страница создана 22.06.2016
http://primanota.ru/wednesday-13/upon-this-noose-chords.htm
Привет, Гость.
Предлагаем пройти революционный курс по гитаре.
Подарок от PrimaNota.Ru, забирай!