PrimaNota.ru - самый крупный в мире бесплатный архив песенных текстов, аккордов, табулатур и нот


Washya - Undercover - таба, видео

Регистрация Запомнить меня
Войти через:  Facebook Google Twitter Vk Yandex Mail.ru

Washya - Undercover - таба, видео

Печатать
Просмотров: 61
-----------------------------------------------------------------------------
                            Undercover (grinspoon) - Washya
-----------------------------------------------------------------------------
Tuning: Drop D (EBGDAD)
Intro
E|------------------------------------------------------------|
B|------------------------------------------------------------|
G|-0-0-5-0-7-0--------5-0-7-0---------5-0-4-5-5-----5-5-5-4-0-|
D|-------------0--------------0---2-2-----------3-3-----------|
A|----------------3-3-----------------------------------------|
D|------------------------------------------------------------|


E|-----------------------------------------------------------|
B|-----------------------------------------------------------|
G|-0-0-5-0-7-0---------3-3-3-2-0-----5-5-5--5-5-5-5----------|
D|-------------0---------------------5-5-5--5-5-5-5----------|
A|----------------1-1----------------3-3-3--3-3-3-3----------|
D|-----------------------------------------------------------|
                       
E|------------------------------------------------------------|
B|------------------------------------------------------------|
G|-0-0-5-0-7-0--------5-0-7-0---------5-0-4-5-5-----5-5-5-4-0-|
D|-------------0--------------0---2-2-----------3-3-----------|
A|---------------3-3------------------------------------------|
D|------------------------------------------------------------|


E|-----------------------------------------------------------|
B|-----------------------------------------------------------|
G|-0-0-5-0-7-0---------3-3-3-2-0-----5-5-5--5-5-5-5----------|
D|-------------0---------------------5-5-5--5-5-5-5----------|
A|----------------1-1----------------3-3-3--3-3-3-3----------|
D|-----------------------------------------------------------|

E|------|
B|------|
G|------|
D|------|
A|-33h5-|
D|-33h5-|

Verses
E|----------------------------|
B|----------------------------|
G|-33333p2-----3333p2p3/5-----|
D|---------333------------555-|
A|---------333------------555-|
D|---------333------------555-|

Just Before Chorus
E|-------------------|
B|-------------------|
G|-------------------|
D|-------------------|
A|-00000-22222-33333-|
D|-00000-22222-33333-|x2

Chorus
E|-------------------------------------------------------------|
B|-------------------------------------------------------------|
G|-------------------------------------------------------------|
D|---------555-555---------555-555-----------------555-555-----|
A|-555-555-333-333-222-222-333-333-555-555-111-111-333-333-3h5-|
D|-555-555---------222-222---------555-555-111-111---------3h5-|

Next part (palm muted)
E|---------------------------------------------------------|
B|---------------------------------------------------------|
G|---------------------------------------------------------|
D|--------------555555555555--------------555555555-33-5/6-|
A|-555555555555-333333333333-555555555555-333333333-11-3/4-|
D|-555555555555--------------555555555555------------------|
PM ************ ************ ************ 

Solo
E|------------------------------------------------|
B|------------------------------------------------|
G|-3p2p0-3p2p0h2b~-3p2p0-3p2p0h2~-3p2p0-3p2p0h2p0-|
D|------------------------------------------------|
A|------------------------------------------------|
D|------------------------------------------------|

Добавлено: 27.08.2013
Другие материалы по этой песне:
  • Аккорды и текст

Страница создана 27.08.2013
http://primanota.ru/washya/undercover-chords.htm
Привет, Гость.
Предлагаем пройти революционный курс по гитаре.
Подарок от PrimaNota.Ru, забирай!