PrimaNota.ru - самый крупный в мире бесплатный архив песенных текстов, аккордов, табулатур и нот


Washya - Triage - таба

Регистрация Запомнить меня
Войти через:  Facebook Google Twitter Vk Yandex Mail.ru

Washya - Triage - таба

Печатать
Просмотров: 68
------------------------------------------------------------------------------
               Triage - Washya
------------------------------------------------------------------------------
Tuning: Drop C (DAFCGC)
Intro
D|---------------------------------------------|
A|---------------------------------------------|
F|--------9--------9-9h10p9\7------9-10\7------|
C|-----10-------10------------9h10-------------|
G|---7--------7----------------------8\5-3h5-1-|
C|-0--------0----------------------------3h5-1-|

Verses
D|------------------------------------------|
A|------------------------------------------|
F|-----------5/88---------------8\555-----2-|
C|----------------------------------------2-|
G|-0000-0000-3/66-023-0000-0000-6\333-0-1-0-|
C|-0000-0000------023-0000-0000-------0-1---|
PM **** ****          **** **** 

Chorus
D|-------------------------------------------------------------------------|
A|-------------------------------------------------------------------------|
F|-------------------------------------------------------------------------|
C|-9999999-5555555-----------------333333-555555---------------555555------|
G|-7777777-3333333-5555555-1111111-111111-333333-222222/555555-333333-11/3-|
C|-----------------5555555-1111111---------------222222/555555--------11/3-|
                                                                            

D|----------------------------------------------|
A|----------------------------------------------|
F|----------------------888888\666666-----------|
C|--------333333--------------------------------|
G|-333333-111111-666666-666666\444444-023202532-|
C|-333333--------666666---------------023202532-|
PM                                    ******** 
Добавлено: 08.12.2013
Другие материалы по этой песне:
  • Аккорды и текст

Страница создана 08.12.2013
http://primanota.ru/washya/triage-chords.htm
Привет, Гость.
Предлагаем пройти революционный курс по гитаре.
Подарок от PrimaNota.Ru, забирай!