PrimaNota.ru - самый крупный в мире бесплатный архив песенных текстов, аккордов, табулатур и нот


Washya - Thrillseeker - таба

Регистрация Запомнить меня
Войти через:  Facebook Google Twitter Vk Yandex Mail.ru

Washya - Thrillseeker - таба

Печатать
Просмотров: 44
-----------------------------------------------------------------------------
                  Thrillseeker - Washya
-----------------------------------------------------------------------------
Tuning: Drop D (ebgDAD)
Intro
e|-------------------------------|
b|-------------------------------|
g|----22----2---2----22----2---2-|
D|----22----2---2----22----2---2-|
A|-44----44---4---44----44---4---|
D|-------------------------------|
PM **    **   *   **    **   * 

Verses
e|-------------------------------|
b|-------------------------------|
g|-------------------------------|
D|----44----4---4----44----4---4-|
A|-44-22-44-2-4-2-44-22-44-2-4-2-|
D|-44----44---4---44----44---4---|
PM **    **   *   **    **   * 

Chorus
e|-----------------------------------------------------|
b|-----------------------------------------------------|
g|-----------------------------------------------------|
D|-4-4-----2-------5-4-5-4-------------------2-4-3-----|
A|-2-2-2-4-0-4-2-0-3-2-3-2-4-2-2-0-2-6-5-1-3-0-2-1-3-5-|
D|-----2-4---4-2-0---------4-2-2-0-2-6-5-1-3-------3-5-|
Добавлено: 02.11.2013
Другие материалы по этой песне:
  • Аккорды и текст

Страница создана 02.11.2013
http://primanota.ru/washya/thrillseeker-chords.htm
Привет, Гость.
Предлагаем пройти революционный курс по гитаре.
Подарок от PrimaNota.Ru, забирай!