PrimaNota.ru - самый крупный в мире бесплатный архив песенных текстов, аккордов, табулатур и нот


Washya - Scorned - таба, видео

Регистрация Запомнить меня
Войти через:  Facebook Google Twitter Vk Yandex Mail.ru

Washya - Scorned - таба, видео

Печатать
Просмотров: 65
Уроки эстрадного вокала в Санкт-Петербурге
-----------------------------------------------------------------------------
                      Scorned - Washya
-----------------------------------------------------------------------------
Tuning: Standard (EBGDAE)
Intro
E|---------------------------------------------|
B|---------------------------------------------|
G|---------------------------------------------|
D|---------------------------------------------|
A|---------------------------------------------|
E|-0-0-6-0-3-5-0-0-6-0-3-5-0-6-0-3-5-0-6-0-3-5-|
PM * * * * * * * * * * * * * * * * * * * * * * 

Verses
E|-----------------------------------------------|
B|-----------------------------------------------|
G|-----------------------------------------------|
D|-----------------------------------------------|
A|---------------------------------------333-222-|
E|-0-6-0-3-5-3-0-6-0-3-5-3-0-6-0-3-5-3-0-111-000-|
PM * * * * * * * * * * * * * * * * * * * 

E|------------------------------------------------------|
B|------------------------------------------------------|
G|------------------------------------------------------|
D|------------------------------------------------------|
A|-------------------------------------------888\777\55-|
E|-1-4-1-3-4-3-1-1-4-1-3-4-3-1-1-4-1-3-4-3-1-666\555\33-|
PM * * * * * * * * * * * * * * * * * * * * * 

E|-----------------------------------------------|
B|-----------------------------------------------|
G|-----------------------------------------------|
D|-----------------------------------------------|
A|---------------------------------------333-222-|
E|-0-6-0-3-5-3-0-6-0-3-5-3-0-6-0-3-5-3-0-111-000-|
PM * * * * * * * * * * * * * * * * * * * 

E|------------------------------------------------------|
B|------------------------------------------------------|
G|------------------------------------------------------|
D|------------------------------------------------------|
A|-------------------------------------------4/555\44-2-|
E|-2-5-2-4-5-4-2-2-5-2-4-5-4-2-2-5-2-4-5-4-2-2/333\22-0-|
PM * * * * * * * * * * * * * * * * * * * * * 

E|-----------------------------------------------|
B|-----------------------------------------------|
G|-----------------------------------------------|
D|-----------------------------------------------|
A|---------------------------------------333-222-|
E|-0-6-0-3-5-3-0-6-0-3-5-3-0-6-0-3-5-3-0-111-000-|
PM * * * * * * * * * * * * * * * * * * * 

Chorus
E|------------------------------------------------------|
B|------------------------------------------------------|
G|------------------------------------------------------|
D|--------9--------7--------------------------4---------|
A|---7-10-----7-10-----10p9-------1p0-----1h2-----------|
E|-0--------5--------9------7-0-3-----3-0-------3-2p1p0-|

Verses
E|-----------------------------------------------|
B|-----------------------------------------------|
G|-----------------------------------------------|
D|-----------------------------------------------|
A|---------------------------------------333-222-|
E|-0-6-0-3-5-3-0-6-0-3-5-3-0-6-0-3-5-3-0-111-000-|
PM * * * * * * * * * * * * * * * * * * * 

E|------------------------------------------------------|
B|------------------------------------------------------|
G|------------------------------------------------------|
D|------------------------------------------------------|
A|-------------------------------------------888\777\55-|
E|-1-4-1-3-4-3-1-1-4-1-3-4-3-1-1-4-1-3-4-3-1-666\555\33-|
PM * * * * * * * * * * * * * * * * * * * * * 

E|-----------------------------------------------|
B|-----------------------------------------------|
G|-----------------------------------------------|
D|-----------------------------------------------|
A|---------------------------------------333-222-|
E|-0-6-0-3-5-3-0-6-0-3-5-3-0-6-0-3-5-3-0-111-000-|
PM * * * * * * * * * * * * * * * * * * * 

E|------------------------------------------------------|
B|------------------------------------------------------|
G|------------------------------------------------------|
D|------------------------------------------------------|
A|-------------------------------------------4/555\44-2-|
E|-2-5-2-4-5-4-2-2-5-2-4-5-4-2-2-5-2-4-5-4-2-2/333\22-0-|
PM * * * * * * * * * * * * * * * * * * * * * 

E|-----------------------------------------------|
B|-----------------------------------------------|
G|-----------------------------------------------|
D|-----------------------------------------------|
A|---------------------------------------333-222-|
E|-0-6-0-3-5-3-0-6-0-3-5-3-0-6-0-3-5-3-0-111-000-|
PM * * * * * * * * * * * * * * * * * * * 

Chorus
E|----------------------------------------------------|
B|----------------------------------------------------|
G|----------------------------------------------------|
D|--------9--------7--------------------------4-------|
A|---7-10-----7-10-----10p9-------1p0-----1h2---------|
E|-0--------5--------9------7-0-3-----3-0-------3-2p0-|

Guitar Solo
E|-------------------------------------------------------------------------|
B|-------------------------------------------------------------------------|
G|------------------------------3p2h3--------------------------------------|
D|---2---2h4/5p4h5/8p7h8/10-----------4p2h4--------------------------------|
A|-4---4------------------------------------3h4p3p2----3p2h3/5h7p5h7/8p7h8-|
E|--------------------------2-2---------------------00---------------------|
PM                          * *                     ** 

E|-------------------------------------------------------------------------|
B|-------------------------------------------------------------------------|
G|---------------------7p6h7-------------------5p4h5/7/8p7h8/9/11p10h11h13-|
D|---------------------------5p3h5-----------------------------------------|
A|-8/10p9h10/13/15~----------------1p0h1p0---------------------------------|
E|------------------33---------------------2-2-----------------------------|
PM                  **                     * * 

E|-----15-15-14p12----15-----------------------16~--13h16p15p13----13-|
B|-15~-------------14----15p14p12----------14~------------------16----|
G|--------------------------------15p14p12----------------------------|
D|--------------------------------------------------------------------|
A|--------------------------------------------------------------------|
E|--------------------------------------------------------------------|

E|-13h16p15p13----13-13h16p15p13----13h16p15p13h16p15p13h16p15p13h16p15h13-|
B|-------------16----------------16----------------------------------------|
G|-------------------------------------------------------------------------|
D|-------------------------------------------------------------------------|
A|-------------------------------------------------------------------------|
E|-------------------------------------------------------------------------|

E|-------------------------------12h15p13p12h17----12h15p13p12h17-|
B|-5p3h5/6/7p6h7/9p8/9h11/13~-13----------------13----------------|
G|----------------------------------------------------------------|
D|----------------------------------------------------------------|
A|----------------------------------------------------------------|
E|----------------------------------------------------------------|

E|----12h17p15----17p15p12-----11-11-----11-11----11h12p11\9h10p9\7h8p7\5-|
B|-13----------13--------------11-11-----11-11----11----------------------|
G|-------------------------13b-------13b-------13b------------------------|
D|------------------------------------------------------------------------|
A|------------------------------------------------------------------------|
E|------------------------------------------------------------------------|

E|---------------------------------------------------|
B|-4p2p0---------------------------------------------|
G|-------3p2p0---2p0-4p2p0---------------------------|
D|-------------4-----------3p2-----2p0---------------|
A|-----------------------------2-4-----4p2p0-------2-|
E|-------------------------------------------4p2p0-0-|

Chorus
E|----------------------------------------------------|
B|----------------------------------------------------|
G|----------------------------------------------------|
D|--------9--------7--------------------------4-------|
A|---7-10-----7-10-----10p9-------1p0-----1h2---------|
E|-0--------5--------9------7-0-3-----3-0-------3-2p0-|

Verses
E|-----------------------------------------------|
B|-----------------------------------------------|
G|-----------------------------------------------|
D|-----------------------------------------------|
A|---------------------------------------333-222-|
E|-0-6-0-3-5-3-0-6-0-3-5-3-0-6-0-3-5-3-0-111-000-|
PM * * * * * * * * * * * * * * * * * * * 

E|------------------------------------------------------|
B|------------------------------------------------------|
G|------------------------------------------------------|
D|------------------------------------------------------|
A|-------------------------------------------888\777\55-|
E|-1-4-1-3-4-3-1-1-4-1-3-4-3-1-1-4-1-3-4-3-1-666\555\33-|
PM * * * * * * * * * * * * * * * * * * * * * 

E|-----------------------------------------------|
B|-----------------------------------------------|
G|-----------------------------------------------|
D|-----------------------------------------------|
A|---------------------------------------333-222-|
E|-0-6-0-3-5-3-0-6-0-3-5-3-0-6-0-3-5-3-0-111-000-|
PM * * * * * * * * * * * * * * * * * * * 

E|------------------------------------------------------|
B|------------------------------------------------------|
G|------------------------------------------------------|
D|------------------------------------------------------|
A|-------------------------------------------4/555\44-2-|
E|-2-5-2-4-5-4-2-2-5-2-4-5-4-2-2-5-2-4-5-4-2-2/333\22-0-|
PM * * * * * * * * * * * * * * * * * * * * * 

E|-----------------------------------------------|
B|-----------------------------------------------|
G|-----------------------------------------------|
D|-----------------------------------------------|
A|---------------------------------------333-222-|
E|-0-6-0-3-5-3-0-6-0-3-5-3-0-6-0-3-5-3-0-111-000-|
PM * * * * * * * * * * * * * * * * * * * 
Добавлено: 08.07.2013
Другие материалы по этой песне:
  • Аккорды и текст

Страница создана 08.07.2013
http://primanota.ru/washya/scorned-chords.htm
Привет, Гость.
Предлагаем пройти революционный курс по гитаре.
Подарок от PrimaNota.Ru, забирай!