PrimaNota.ru - самый крупный в мире бесплатный архив песенных текстов, аккордов, табулатур и нот


Washya - Proven Justice - таба

Регистрация Запомнить меня
Войти через:  Facebook Google Twitter Vk Yandex Mail.ru

Washya - Proven Justice - таба

Печатать
Просмотров: 46
------------------------------------------------------------------------------
                  Proven Justice - Washya
------------------------------------------------------------------------------
Tuning: Standard (EBGDAE)
Intro
E|-----------------------------------------------------------|
B|-----------------------------------------------------------|
G|---------------------------------------------------2-------|
D|-------2-1-----2-------1-------2---------------------4-----|
A|---0-1-------1-----1-2---2---1---2222-22-2-3/5---2---2-4-2-|
E|-0---------0-----0---------0-----0000-00-0-1/3-1-------2-0-|
PM                                 **** ** * 

Main Riff/Verses
E|-------------------------------------------------------------------|
B|-------------------------------------------------------------------|
G|-------------------------------------------------------------------|
D|----9-6---9-6-------9-6---9-6----------7-4---7-4-------7-4---7-4---|
A|-77-----7--------77-----7-------789-55-----5--------55-----5-------|
E|-------------7~---------------7-567--------------5~--------------5-|

E|------------|
B|------------|
G|------------|
D|------3-----|
A|-5679-1-3-2-|
E|-3457---1-0-|

Chorus
E|----------------------------------------------------------|
B|----------------------------------------------------------|
G|----------------------------------------------------------|
D|-77777-------------99999-------------------------8888/-10-|
A|-55555-55555-33333-77777-77777-55555-6666/77/888-6666/-8--|
E|-------33333-11111-------55555-33333-4444/55/666----------|
Добавлено: 16.07.2013
Другие материалы по этой песне:
  • Аккорды и текст

Страница создана 16.07.2013
http://primanota.ru/washya/proven-justice-chords.htm
Привет, Гость.
Предлагаем пройти революционный курс по гитаре.
Подарок от PrimaNota.Ru, забирай!