PrimaNota.ru - самый крупный в мире бесплатный архив песенных текстов, аккордов, табулатур и нот


Washya - Cypher - таба, видео

Регистрация Запомнить меня
Войти через:  Facebook Google Twitter Vk Yandex Mail.ru

Washya - Cypher - таба, видео

Печатать
Просмотров: 64
-------------------------------------------------------------------------------
                            Cypher - Washya
-------------------------------------------------------------------------------
Tuning: Standard (ebgDAE)
Intro
e|--------------------------------------|
b|--------------------------------------|
g|--------------------------------------|
D|-------5------------------------3-4-4-|
A|-2-----3-----3-5-5--2---4-5-----1-2-2-|
E|-0-0-3---0-3-1-3-3--0-0-2-3-0-2-------|
PM   . .   . .          .     . . 

Verses
e|-------------------0-----------------------|
b|---------------------1---------------------|
g|-------------0---2-----2-------------------|
D|-----0-----2---2---------4-2-0-----2p0-----|
A|---2---2-4---------------------2-4-----2-3-|
E|-4-------------------------------------0-1-|

Chorus
e|---------------------------------------------------------------------|
b|---------------------------------------------------------------------|
g|---------------------------------------------------------------------|
D|-----4-3---------------11\10---------2-3-----------------------------|
A|-2-3-2-1-3-4-------7/8-9\-8--5/7-----0-1-5/4/3/2-----3/4-6/5-2-3-----|
E|-0-1-----1-2222222-5/6-------3/55555-----3/2/1/00000-1/2-8/7-0-11111-|
PM            ......              ....            ....            ....  
Добавлено: 19.09.2013
Другие материалы по этой песне:
  • Аккорды и текст

Страница создана 19.09.2013
http://primanota.ru/washya/cypher-chords.htm
Привет, Гость.
Предлагаем пройти революционный курс по гитаре.
Подарок от PrimaNota.Ru, забирай!