PrimaNota.ru - самый крупный в мире бесплатный архив песенных текстов, аккордов, табулатур и нот


Washya - Branded - таба, видео

Регистрация Запомнить меня
Войти через:  Facebook Google Twitter Vk Yandex Mail.ru

Washya - Branded - таба, видео

Печатать
Просмотров: 61
-----------------------------------------------------------------------------
              Branded - Washya (Grinspoon)
-----------------------------------------------------------------------------
Tuning: Standard (EBGDAE)
Intro (Jamieson)
E|-------------------------------------------|
B|-------------------------------------------|
G|-------------------------------------------|
D|-------------------------------------------|
A|-7777777777-5555555555-3333333333-22222222-|
E|-5555555555-3333333333-1111111111-00000000-|

Intro (Davern)
E|----14-------14-------12-------14----|
B|-------12-------12-------12-------14-|
G|-------------------------------------|
D|-------------------------------------|
A|-------------------------------------|
E|-00-------00-------00-------00-------|
PM **       **       **       **

Verses (Davern and Jamieson)
E|------------------------|
B|------------------------|
G|------------------------|
D|-5-5-5-5555-5-5-5-55555-|
A|-3-3-3-3333-3-3-3-33333-|
E|------------------------|

Part 2 ("There is nothing to call your own")
E|-3-0-0-2-2-|
B|-3-1-1-3-3-|
G|-0-2-2-2-2-|
D|-2-2-2-0-0-|
A|-3-0-0-0-0-|
E|-0-0-0-0-0-|

Chorus (Jamieson)"we've all been bitten branded....."
E|----------------------------------------------------------------------|
B|----------------------------------------------------------------------|
G|----------------------------------------------------------------------|
D|----------------------------------------------------------------------|
A|-777777777-5555555555-333333333-222222222-777777777-5555555-3333333---|
E|-555555555-3333333333-111111111-000000000-555555555-3333333-1111111---|

E|-----------|
B|-----------|
G|-----------|
D|-----------|
A|-222222222-|
E|-000000000-|

Chorus (Davern)
E|----14-------14-------12-------14----|
B|-------12-------12-------12-------14-|
G|-------------------------------------|
D|-------------------------------------|
A|-------------------------------------|
E|-00-------00-------00-------00-------|
PM **       **       **       **

Interlude "BRANDED.......BRANDED!!"
E|-------------|
B|-------------|
G|-------------|
D|-7~-5~-3~-2~-|
A|-7~-5~-3~-2~-|
E|-5~-3~-1~-0~-|
Добавлено: 05.07.2013
Другие материалы по этой песне:
  • Аккорды и текст

Страница создана 05.07.2013
http://primanota.ru/washya/branded-chords.htm
Привет, Гость.
Предлагаем пройти революционный курс по гитаре.
Подарок от PrimaNota.Ru, забирай!