PrimaNota.ru - самый крупный в мире бесплатный архив песенных текстов, аккордов, табулатур и нот


Washya - Beat Of The Drum - таба, видео

Регистрация Запомнить меня
Войти через:  Facebook Google Twitter Vk Yandex Mail.ru

Washya - Beat Of The Drum - таба, видео

Печатать
Просмотров: 60
-----------------------------------------------------------------------------
         Beat Of The Drum - Washya
-----------------------------------------------------------------------------
Tuning: Drop C (DAFCGC)
Intro
D|------------------------------------------------|---------|
A|------------------------------------------------|---------|
F|------------------------------------------------|---------|
C|------------------------------------------------|---------|
G|----5-5h6p5-5-5h6-----5-------5-------5---------|-0-3-5-6-|
C|-00---------------5-6---6-5-6---6-5-6---6-5-6-5-|-0-3-5-6-|
PM **               * *   * * *   * * *   * * * * 

Verses
D|-----------------------------------|
A|-----------------------------------|
F|-----------------------------------|
C|-----------------------------------|
G|-0000--0-0--0000-0-0-0000-0-0-0000-|
C|-0000--0-0--0000-0-0-0000-0-0-0000-|
PM ****  * *  **** * * **** * * ****

Chorus
D|----------------------------------------------------------------------|
A|----------------------------------------------------------------------|
F|-5-5-7-7-3--------------7-7-9-9-5--------------3-3-6-6----------------|
C|-5-5-7-7-3-----2-3-2----7-7-9-9-5-----4-5-4----3-3-6-6-5---3-2--------|
G|-3-3-5-5-1---3-------3~-5-5-7-7-3---5-------5~-1-1-4-4-5-5-----5-3----|
C|-----------5----------------------7--------------------5-----------5~-|
PM           * * * * *              * * * * *              * * * * *  

Verses
D|-----------------------------------|
A|-----------------------------------|
F|-----------------------------------|
C|-----------------------------------|
G|-0000--0-0--0000-0-0-0000-0-0-0000-|
C|-0000--0-0--0000-0-0-0000-0-0-0000-|
PM ****  * *  **** * * **** * * ****

Interlude
D|-10-7-0-5-7-0-4-5-------5-0-/12-9-0-7-9-0-6-7-------9-0/14-10-0-8-10-0-7-|
A|------------------6---6-----------------------8---8----------------------|
F|--------------------7---------------------------9------------------------|
C|-------------------------------------------------------------------------|
G|-------------------------------------------------------------------------|
C|-------------------------------------------------------------------------|

D|-8--------8-8------9-------10-------11-------12----------12/14~-|
A|---9----9-----9------10-------11-------12-------13----13--------|
F|-----10---------10------11-------12-------13-------14-----------|
C|----------------------------------------------------------------|
G|----------------------------------------------------------------|
C|----------------------------------------------------------------|

Just Before Solo/and under solo
D|-----------------------------------------------------|
A|-----------------------------------------------------|
F|------5/7-5/7------5/7-5/7------3/5-3/5------3/5-3/5-|
C|------5/7-5/7------5/7-5/7------3/5-3/5------3/5-3/5-|
G|------3/5-3/5------3/5-3/5------1/3-1/3------1/3-1/3-|
C|-0000---------0000---------0000---------0000---------|
PM ****         ****         ****         **** 

Solo
D|---------------------------------------------7p6h7h9p7p6-4p3p1/9p7p6-|
A|-------------------------------------6p5h6h8-------------------------|
F|-----------------------------5h4h5h7---------------------------------|
C|---------------4p3h4h6-3h5h6-----------------------------------------|
G|-------4p3h4h6-------------------------------------------------------|
C|-3h4h6---------------------------------------------------------------|
PM ***** ******* ******* ***** 
D|-4p3p1/9p7p6-9p7p6h9p7p6h9p7p6-9~-9-7-6-------6---9-7-6-------------|
A|----------------------------------------7-9-8---7-------9-7-6---7-6-|
F|--------------------------------------------------------------9-----|
C|--------------------------------------------------------------------|
G|--------------------------------------------------------------------|
C|--------------------------------------------------------------------|

D|------------------------------------------9-8-10h13p10h13p10h14p10h14p10-|
A|-------------------------------------8-10--------------------------------|
F|-9---8-7-------8-7-5-----6-5-----8-7-------------------------------------|
C|---9-----9-7-9-------7-8-----7-9-----------------------------------------|
G|-------------------------------------------------------------------------|
C|-------------------------------------------------------------------------|

D|-14p10h13p10h13p10h14p10h14----------------------13-12-----------|
A|----------------------------13-12-15-------14-15-------14b/17b~~-|
F|-------------------------------------13-12-------------16b/19b~~-|
C|-----------------------------------------------------------------|
G|-----------------------------------------------------------------|
C|-----------------------------------------------------------------|

Intro
D|------------------------------------------------|---------|
A|------------------------------------------------|---------|
F|------------------------------------------------|---------|
C|------------------------------------------------|---------|
G|----5-5h6p5-5-5h6-----5-------5-------5---------|-0-3-5-6-|
C|-00---------------5-6---6-5-6---6-5-6---6-5-6-5-|-0-3-5-6-|
PM **               * *   * * *   * * *   * * * * 

erses
D|-----------------------------------|
A|-----------------------------------|
F|-----------------------------------|
C|-----------------------------------|
G|-0000--0-0--0000-0-0-0000-0-0-0000-|
C|-0000--0-0--0000-0-0-0000-0-0-0000-|
PM ****  * *  **** * * **** * * ****

Chorus
D|----------------------------------------------------------------------|
A|----------------------------------------------------------------------|
F|-5-5-7-7-3--------------7-7-9-9-5--------------3-3-6-6----------------|
C|-5-5-7-7-3-----2-3-2----7-7-9-9-5-----4-5-4----3-3-6-6-5---3-2--------|
G|-3-3-5-5-1---3-------3~-5-5-7-7-3---5-------5~-1-1-4-4-5-5-----5-3----|
C|-----------5----------------------7--------------------5-----------5~-|
PM           * * * * *              * * * * *              * * * * *  

Verses
D|-----------------------------------|
A|-----------------------------------|
F|-----------------------------------|
C|-----------------------------------|
G|-0000--0-0--0000-0-0-0000-0-0-0000-|
C|-0000--0-0--0000-0-0-0000-0-0-0000-|
PM ****  * *  **** * * **** * * ****
Добавлено: 31.10.2013
Другие материалы по этой песне:
  • Аккорды и текст

Страница создана 31.10.2013
http://primanota.ru/washya/beat-of-the-drum-chords.htm
Привет, Гость.
Предлагаем пройти революционный курс по гитаре.
Подарок от PrimaNota.Ru, забирай!