PrimaNota.ru - самый крупный в мире бесплатный архив песенных текстов, аккордов, табулатур и нот


Washya - Archetypo - таба

Регистрация Запомнить меня
Войти через:  Facebook Google Twitter Vk Yandex Mail.ru

Washya - Archetypo - таба

Печатать
Просмотров: 116
Уроки эстрадного вокала в Санкт-Петербурге
-----------------------------------------------------------------------------
                         Archetypo - Washya
-----------------------------------------------------------------------------
Tuning: Standard (EBGDAE)
Intro
E|-------------------------------|
B|----/12~----/10~----/9~----/7~-|
G|-------------------------------|
D|-------------------------------|
A|-22------22------22-----22-----|
E|-00------00------00-----00-----|x2
PM **      **      **     ** 

Intro
Part 2 (lightly palm mute these parts)
E|----------------------------------------------------------------------|
B|----------------------------------------------------------------------|
G|----------------------------------------------------------------------|
D|-5555555555555555/7777777777777777/8888888888888888/11111111111111111-|
A|-3333333333333333/5555555555555555/6666666666666666/9999999999999999--|
E|----------------------------------------------------------------------|x2
PM *********************************************************************  

Part 2 (continued)
E|----------------------------------------------------------------------|
B|----------------------------------------------------------------------|
G|-5555555555555555-----------------------------------------------------|
D|------------------7777777777777777/-----------------11111111111111111-|
A|-3333333333333333------------------8888888888888888/9999999999999999--|
E|------------------5555555555555555/6666666666666666/------------------|x2
PM *********************************************************************

Part 4 (Pre Verses)
E|-----5p4---------7p6--------9p8------12----------5p3-----|
B|---------5-----------7----------9-------13-----------4---|
G|-----------6-----------8----------10-------14----------5-|
D|---------------------------------------------------------|
A|-2-2----------/7---------/9-------------------/5---------|
E|-0-0-----------------------------------------------------|
PM * * 

Verse 1
E|---------------------------------------------|
B|---------------------------------------------|
G|--------10p9p7----------9p7p6--------7p5p4---|
D|---77/9--------9---55/7-------7-33/5-------5-|
A|---55/7------------33/5---------11/3---------|
E|-0---------------0---------------------------|
PM *               * 

Part 4 (Pre Verses)
E|-----5p4---------7p6--------9p8------12----------5p3-----|
B|---------5-----------7----------9-------13-----------4---|
G|-----------6-----------8----------10-------14----------5-|
D|---------------------------------------------------------|
A|-2-2----------/7---------/9-------------------/5---------|
E|-0-0-----------------------------------------------------|
PM * * 

Verse 2 (Palm muted part very fast)
E|--------------------------------------------------------|
B|--------------------------------------------------------|
G|--------------------------------------------------------|
D|--------------------------------------------------------|
A|-----8-7-5-7-----------------8-7-5-7-------------10-9-5-|
E|-000---------000-8-7-5-7-000---------000-8-7-5-7-8--7-3-|
PM ***         *** * * * * ***         *** * * * *  

Chorus 
E|--------------------------------------------------------------|
B|-5p4---------8-7-----------------11-----------16p15-------18~-|
G|-----5---7/9-----8---10/12----12----12----14/-------16--------|
D|-------6-----------9-------11----------13--------------17-----|
A|--------------------------------------------------------------|
E|--------------------------------------------------------------|

Pre Verse
Part 4 (Pre Verses)
E|-----5p4---------7p6--------9p8------12----------5p3-----|
B|---------5-----------7----------9-------13-----------4---|
G|-----------6-----------8----------10-------14----------5-|
D|---------------------------------------------------------|
A|-2-2----------/7---------/9-------------------/5---------|
E|-0-0-----------------------------------------------------|
PM * * 

Verse 1
E|---------------------------------------------|
B|---------------------------------------------|
G|--------10p9p7----------9p7p6--------7p5p4---|
D|---77/9--------9---55/7-------7-33/5-------5-|
A|---55/7------------33/5---------11/3---------|
E|-0---------------0---------------------------|
PM *               * 

Part 4 (Pre Verses)
E|-----5p4---------7p6--------9p8------12----------5p3-----|
B|---------5-----------7----------9-------13-----------4---|
G|-----------6-----------8----------10-------14----------5-|
D|---------------------------------------------------------|
A|-2-2----------/7---------/9-------------------/5---------|
E|-0-0-----------------------------------------------------|
PM * * 

Verse 2 (Palm muted part very fast)
E|--------------------------------------------------------|
B|--------------------------------------------------------|
G|--------------------------------------------------------|
D|--------------------------------------------------------|
A|-----8-7-5-7-----------------8-7-5-7-------------10-9-5-|
E|-000---------000-8-7-5-7-000---------000-8-7-5-7-8--7-3-|
PM ***         *** * * * * ***         *** * * * *  

Добавлено: 22.09.2013
Другие материалы по этой песне:
  • Аккорды и текст

Страница создана 22.09.2013
http://primanota.ru/washya/archetypo-chords.htm
Привет, Гость.
Предлагаем пройти революционный курс по гитаре.
Подарок от PrimaNota.Ru, забирай!