PrimaNota.ru - самый крупный в мире бесплатный архив песенных текстов, аккордов, табулатур и нот


Washya - Anaemic - таба, видео

Регистрация Запомнить меня
Войти через:  Facebook Google Twitter Vk Yandex Mail.ru

Washya - Anaemic - таба, видео

Печатать
Просмотров: 51
-----------------------------------------------------------------------------
               Anaemic - Washya
-----------------------------------------------------------------------------
Tuning: Drop D (DADGBE)
Intro/Verses
E|---------------------------------------------|
B|---------------------------------------------|
G|---------------------------------------------|
D|-----3p2p0---------3p2p0---------------------|
A|-----------2h3p2---------3p2p0-----2p0-------|
D|-0h2-------------5-------------5p4-----3p2p0-|
PM *** ***** ***** * ***** ***** *** ********* 

Chorus
E|-------------------------------------------------------------------|
B|-------------------------------------------------------------------|
G|-------------------------------44-444-444-44/77-777-777-77---------|
D|-33-333-333-33-3/66-666-666-66-44-444-444-44/55-555-555-55-55-5-55-|
A|-11-111-111-11-1/44-444-444-44-22-222-222-22/55-555-555-55-33-3-33-|
D|-11-111-111-11-1/44-444-444-44-----------------------------33-3-33-|
PM                                                           ** * ** 

Solo
E|-------------------------------------------------------------------|
B|-------------------------------------------------------------------|
G|-8b-7h8p5b-4h5p2b-----2---4b~-4p2p0---2p0--------------------------|
D|------------------2h4---4-----------4-----4p2p0---2p0--------------|
A|------------------------------------------------4-----4p2p0--------|
D|------------------------------------------------------------4p2h4~-|

E|--12b-12b------12h15p12----12h15p12----12h15p12-------------------------|
B|-/13b-13b-13b~----------13----------14----------14h15p12----------15p14-|
G|---------------------------------------------------------14h15p12-------|
D|------------------------------------------------------------------------|
A|------------------------------------------------------------------------|
D|------------------------------------------------------------------------|

E|-12h15----12h15----12h15p12-------14p12p10-------10-------10h13p10h13~-|
B|-------13-------13----------13h15----------13p12----13p12--------------|
G|-----------------------------------------------------------------------|
D|-----------------------------------------------------------------------|
A|-----------------------------------------------------------------------|
D|-----------------------------------------------------------------------|

Tuning: Drop D (DADGBE)
Intro/Verses
E|---------------------------------------------|
B|---------------------------------------------|
G|---------------------------------------------|
D|-----3p2p0---------3p2p0---------------------|
A|-----------2h3p2---------3p2p0-----2p0-------|
D|-0h2-------------5-------------5p4-----3p2p0-|
PM *** ***** ***** * ***** ***** *** ********* 

Chorus
E|-------------------------------------------------------------------|
B|-------------------------------------------------------------------|
G|-------------------------------44-444-444-44/77-777-777-77---------|
D|-33-333-333-33-3/66-666-666-66-44-444-444-44/55-555-555-55-55-5-55-|
A|-11-111-111-11-1/44-444-444-44-22-222-222-22/55-555-555-55-33-3-33-|
D|-11-111-111-11-1/44-444-444-44-----------------------------33-3-33-|
PM                                                           ** * ** 
Добавлено: 14.08.2013
Другие материалы по этой песне:
  • Аккорды и текст

Страница создана 14.08.2013
http://primanota.ru/washya/anaemic-chords.htm
Привет, Гость.
Предлагаем пройти революционный курс по гитаре.
Подарок от PrimaNota.Ru, забирай!