PrimaNota.ru - самый крупный в мире бесплатный архив песенных текстов, аккордов, табулатур и нот


Washya - Acidity - таба

Регистрация Запомнить меня
Войти через:  Facebook Google Twitter Vk Yandex Mail.ru

Washya - Acidity - таба

Печатать
Просмотров: 77
----------------------------------------------------------------------------
                        Acidity - Washya
----------------------------------------------------------------------------
Tuning: Drop C
Intro
F|--------------------------------------------------------------------------|
A|--------------------------------------------------------------------------|
D|-----9---9---9---9---------5-5-5-5---9--9---9---5-5-5-5-5-5---------------|
C|-----9---9---9---9-0-3-3-3-5-5-5-5---9--9---9---5-5-5-5-5-5-8-8-8-5-5-5-5-|
G|-----7---7---7---7-0-3-3-3-3-3-3-3---7--7---7---3-3-3-3-3-3-8-8-8-5-5-5-5-|
C|-0-0---0---0---0---0-3-3-3---------0--0--0---0--------------8-8-8-5-5-5-5-|
pm . .   .   .   .   .               .   .  .   .  

Main Riff/Verses
F|-------------------------------------------------------------------|
A|-------------------------------------------------------------------|
D|-------------------------------------------7-----------------------|
C|-------------------7---9---------------------9-7-----------7-------|
G|---------------7-9---9-----------------7-9-------------7-9---9-----|
C|-0-0-0---0-0-0-----------0-0-0---0-0-0-----------0-0-0---------8-7-|
pm . . .   . . .           . . .   . . .           . . .   

Chorus
F|-----------------------------------------------|
A|-----------------------------------------------|
D|-7-7-9-9-5-5-5---------------------3-3-3-2-2-2-|
C|-7-7-9-9-5-5-5-3-3-3-3-6-6-6-1-1-1-3-3-3-2-2-2-|
G|-5-5-7-7-3-3-3-3-3-3-3-6-6-6-1-1-1-1-1-1-0-0-0-|
C|---------------3-3-3-3-6-6-6-1-1-1-------------|

Guitar Solo
F|-13b~-13-------13-------13-------17-------------------------15-----------|
A|---------12-15----12-15----12-15----15-------------------16----14--------|
D|---------------------------------------14-15----------17----------13-----|
C|---------------------------------------------12-13-15----------------12--|
G|-------------------------------------------------------------------------|
C|-------------------------------------------------------------------------|

F|------------------15h17p15----------------------------15---------------21-|
A|------------15-12----------12-15-------------------15----15---------------|
D|---------14----------------------12-------------17----------17-17----19---|
C|-12b~-12----------------------------15-12-15-17-------------------18------|
G|--------------------------------------------------------------------------|
C|--------------------------------------------------------------------------|
Добавлено: 20.10.2013
Другие материалы по этой песне:
  • Аккорды и текст

Страница создана 20.10.2013
http://primanota.ru/washya/acidity-chords.htm
Привет, Гость.
Предлагаем пройти революционный курс по гитаре.
Подарок от PrimaNota.Ru, забирай!